>
 >
In The Morning And Amazing..

In The Morning And Amazing.. Guitar Tabs

Circa Survive - In The Morning And Amazing.. chords, tabs, tablatures, lyrics

Guitar lessons | Add/correct | Request | Top 50 tabs Artists:  A B C D E F G H I J K L M N O P Q R S T U V W X Y Z 0-9

In The Morning And Amazing.. Guitar Tabs – Circa Survive

CD, Sheet music, Poster

Do you like In The Morning And Amazing..? Share with your friends now
Tabs
In The Morning and Amazing by Circa Survive

Lead Guitar - Half-Step Down

Eb :------------------12-----------------|
Bb :------------14b------12-------r12----|
Gb :------11----------------14b-------14-|
Db :---12--------------------------------|
Ab :14-------14--------------------------|
Eb :-------------------------------------|

Eb :15-b----r--14-------------------------|
Bb :--------------15----15----15----15-p0-|
Gb :-----------------16--*-16----16-------|
Db :--------------------------------------|
Ab :--------------------------------------|
Eb :--------------------------------------|

Eb :------------------12-----------------|
Bb :------------14b------12-------r12----|
Gb :------11----------------14b-------14-|
Db :---12--------------------------------|
Ab :14-------14--------------------------|
Eb :-------------------------------------|

Eb :15-b----r--14-------------------------|
Bb :--------------15----15----15----15-p0-|
Gb :-----------------16--*-16----16-------|
Db :--------------------------------------|
Ab :--------------------------------------|
Eb :--------------------------------------|

Eb :------------------12-----------------|
Bb :------------14b------12-------r12----|
Gb :------11----------------14b-------14-|
Db :---12--------------------------------|
Ab :14-------14--------------------------|
Eb :-------------------------------------|

Eb :------------------------------------|
Bb :12----------------12----------------|
Gb :---14-11-14-11-14--*-14-11-14-11----|
Db :---------------------------------14-|
Ab :------------------------------------|
Eb :------------------------------------|

Eb :------------------12-----------------|15-b----r--14------------------|
Bb :------------14b------12-------r12----|------------------15-----------|
Gb :------11----------------14b-------14-|-------------------------------|
Db :---12--------------------------------|-------------------------------|
Ab :14-------14--------------------------|-------------------------------|
Eb :-------------------------------------|-------------------------------|

Eb :------10-------------------|------------------------|
Bb :-*-12----------------------|------------------------|
Gb :11-------------------------|------------------------|
Db :---------------------------|------------------------|
Ab :---------------------------|------------------------|
Eb :---------------------------|------------------------|

Eb :----9-------------------|------------------------|
Bb :--8---------------------|------------------------|
Gb :9-----------------------|------------------------|
Db :------------------------|------------------------|
Ab :------------------------|------------------------|
Eb :------------------------|------------------------|

Eb :------------------12-----------------|
Bb :------------14b------12-------r12----|
Gb :------11----------------14b-------14-|
Db :---12--------------------------------|
Ab :14-------14--------------------------|
Eb :-------------------------------------|

Eb :15-b----r--14-------------------------|
Bb :--------------15----15----15----15-p0-|
Gb :-----------------16--*-16----16-------|
Db :--------------------------------------|
Ab :--------------------------------------|
Eb :--------------------------------------|

Eb :------------------12-----------------|
Bb :------------14b------12-------r12----|
Gb :------11----------------14b-------14-|
Db :---12--------------------------------|
Ab :14-------14--------------------------|
Eb :-------------------------------------|

Eb :15-b----r--14-------------------------|
Bb :--------------15----15----15----15-p0-|
Gb :-----------------16--*-16----16-------|
Db :--------------------------------------|
Ab :--------------------------------------|
Eb :--------------------------------------|

Eb :------------------12-----------------|
Bb :------------14b------12-------r12----|
Gb :------11----------------14b-------14-|
Db :---12--------------------------------|
Ab :14-------14--------------------------|
Eb :-------------------------------------|

Eb :------------------------------------|
Bb :12----------------12----------------|
Gb :---14-11-14-11-14--*-14-11-14-11----|
Db :---------------------------------14-|
Ab :------------------------------------|
Eb :------------------------------------|

Eb :------------------12-----------------|15-b----r--14------------------|
Bb :------------14b------12-------r12----|------------------15-----------|
Gb :------11----------------14b-------14-|-------------------------------|
Db :---12--------------------------------|-------------------------------|
Ab :14-------14--------------------------|-------------------------------|
Eb :-------------------------------------|-------------------------------|

Eb :------10-------------------|------------------------|
Bb :-*-12----------------------|------------------------|
Gb :11-------------------------|------------------------|
Db :---------------------------|------------------------|
Ab :---------------------------|------------------------|
Eb :---------------------------|------------------------|

Eb :----9-------------------|------------------------|
Bb :--8---------------------|------------------------|
Gb :9-----------------------|------------------------|
Db :------------------------|------------------------|
Ab :------------------------|------------------------|
Eb :------------------------|------------------------|

Eb :------10-------------------|------------------------|
Bb :---12----------------------|------------------------|
Gb :11-------------------------|------------------------|
Db :---------------------------|------------------------|
Ab :---------------------------|------------------------|
Eb :---------------------------|------------------------|

Eb :----9-------------------|------------------------|
Bb :--8---------------------|------------------------|
Gb :9-----------------------|------------------------|
Db :------------------------|------------------------|
Ab :------------------------|------------------------|
Eb :------------------------|------------------------|

Eb :--------------------------|------------------------|
Bb :-----10-------------------|------------------------|
Gb :---9----------------------|------------------------|
Db :11------------------------|------------------------|
Ab :--------------------------|------------------------|
Eb :--------------------------|------------------------|

Eb :------12-------------------|10-----------------------|
Bb :---12----------------------|12-----------------------|
Gb :12-------------------------|-------------------------|
Db :---------------------------|-------------------------|
Ab :---------------------------|-------------------------|
Eb :---------------------------|-------------------------|

Eb :------10-------------------|------------------------|
Bb :---12----------------------|------------------------|
Gb :11-------------------------|------------------------|
Db :---------------------------|------------------------|
Ab :---------------------------|------------------------|
Eb :---------------------------|------------------------|

Eb :----9-------------------|------------------------|
Bb :--8---------------------|------------------------|
Gb :9-----------------------|------------------------|
Db :------------------------|------------------------|
Ab :------------------------|------------------------|
Eb :------------------------|------------------------|

Eb :--------------------------|-------------------------|
Bb :-----10-------------------|12-----------------------|
Gb :---9----------------------|-------------------------|
Db :11------------------------|-------------------------|
Ab :--------------------------|-------------------------|
Eb :--------------------------|-------------------------|

Eb :------12-------------------|10-----------------------|
Bb :---12----------------------|12-----------------------|
Gb :12-------------------------|-------------------------|
Db :---------------------------|-------------------------|
Ab :---------------------------|-------------------------|
Eb :---------------------------|-------------------------|

Eb :------------------12-----------------|
Bb :------------14b------12-------r12----|
Gb :------11----------------14b-------14-|
Db :---12--------------------------------|
Ab :14-------14--------------------------|
Eb :-------------------------------------|

Eb :15-b----r--14-------------------------|
Bb :--------------15----15----15----15-p0-|
Gb :-----------------16--*-16----16-------|
Db :--------------------------------------|
Ab :--------------------------------------|
Eb :--------------------------------------|

Eb :------------------12-----------------|
Bb :------------14b------12-------r12----|
Gb :------11----------------14b-------14-|
Db :---12--------------------------------|
Ab :14-------14--------------------------|
Eb :-------------------------------------|

Eb :15-b----r--14-------------------------|
Bb :--------------15----15----15----15-p0-|
Gb :-----------------16--*-16----16-------|
Db :--------------------------------------|
Ab :--------------------------------------|
Eb :--------------------------------------|

Eb :------------------12-----------------|
Bb :------------14b------12-------r12----|
Gb :------11----------------14b-------14-|
Db :---12--------------------------------|
Ab :14-------14--------------------------|
Eb :-------------------------------------|

Eb :------------------------------------|
Bb :12----------------12----------------|
Gb :---14-11-14-11-14--*-14-11-14-11----|
Db :---------------------------------14-|
Ab :------------------------------------|
Eb :------------------------------------|

Eb :------------------12-----------------|15-b----r--14------------------|
Bb :------------14b------12-------r12----|------------------15-----------|
Gb :------11----------------14b-------14-|-------------------------------|
Db :---12--------------------------------|-------------------------------|
Ab :14-------14--------------------------|-------------------------------|
Eb :-------------------------------------|-------------------------------|

Eb :----------------10----------------|----------------12----------------|
Bb :----------12-----*-12-------------|----------12-----*----------------|
Gb :11-/-/-/---*-11-----*-------------|12-/-/-/---*-14----14-------------|
Db :----------------------------------|----------------------------------|
Ab :----------------------------------|----------------------------------|
Eb :----------------------------------|----------------------------------|

Eb :-------------------------|------------------------|
Bb :10-----------------------|8-----------7-----------|
Gb :-7-----------------------|7-----------7-----------|
Db :-------------------------|------------------------|
Ab :-------------------------|------------------------|
Eb :-------------------------|------------------------|

Eb :----------------10----------------|----------------12----------------|
Bb :----------12-----*-12-------------|----------12-----*----------------|
Gb :11-/-/-/---*-11-----*-------------|12-/-/-/---*-14----14-------------|
Db :----------------------------------|----------------------------------|
Ab :----------------------------------|----------------------------------|
Eb :----------------------------------|----------------------------------|

Eb :-------------------------|------------------------|
Bb :10-----------------------|8-----------7-----------|
Gb :-7-----------------------|7-----------7-----------|
Db :-------------------------|------------------------|
Ab :-------------------------|------------------------|
Eb :-------------------------|------------------------|

Eb :10-------10-------10-------10-------|10-------10-------10---*-------|
Bb :-*-12-------12-------12-------12----|---12-------12----12---*-------|
Gb :-*----11-------11-------11-------11-|------11-------11-11---*-------|
Db :------------------------------------|-------------------------------|
Ab :------------------------------------|-------------------------------|
Eb :------------------------------------|-------------------------------|

Eb :----------------------------|--------------------------------|
Bb :----------------------------|--------------------------------|
Gb :----7-----------------------|----------------7---------7-----|
Db :--9-------------------------|--------------9---------9-------|
Ab :9---------------------------|------------9-------9-9---------|
Eb :----------------------------|--------------------------------|

Eb :--------------------------------|-------------------------|
Bb :--------------------------------|7------------------------|
Gb :------(9)-----------------------|------------7-/9---------|
Db :---11---------------------------|-------------------------|
Ab :10------------------------------|-------------------------|
Eb :--------------------------------|-------------------------|

Eb :-----------------14-p12----------|-------------------------|
Bb :----10------------------14-------|-------------------------|
Gb :--7------------------------------|----------------9---\7---|
Db :9--------------------------------|-------------------------|
Ab :---------------------------------|-------------------------|
Eb :---------------------------------|-------------------------|

Eb :-------------------------------|-------------------------|
Bb :-------------------------------|----------------12-------|
Gb :------(9)----------------------|9---7--------------------|
Db :---11------------------7---9---|-------------------------|
Ab :10-----------------------------|-------------------------|
Eb :-------------------------------|-------------------------|

Eb :----------------------------|--------------------------------|
Bb :----------------------------|--------------------------------|
Gb :----7-----------------------|----------------7---------7-----|
Db :--9-------------------------|--------------9---------9-------|
Ab :9---------------------------|------------9-------9-9---------|
Eb :----------------------------|--------------------------------|

Eb :--------------------------------|-------------------------|
Bb :--------------------------------|8------------------------|
Gb :------(9)-----------------------|------------7-/9---------|
Db :---11---------------------------|-------------------------|
Ab :10------------------------------|-------------------------|
Eb :--------------------------------|-------------------------|

Eb :-----------------14-p12----------|-------------------------|
Bb :----10------------------14-------|-------------------------|
Gb :--7------------------------------|----------------9---\7---|
Db :9--------------------------------|-------------------------|
Ab :---------------------------------|-------------------------|
Eb :---------------------------------|-------------------------|

Eb :-------------------------------|-------------------------|
Bb :-------------------------------|----------------12-------|
Gb :------(9)----------------------|9---7--------------------|
Db :---11------------------7---9---|-------------------------|
Ab :10-----------------------------|-------------------------|
Eb :-------------------------------|-------------------------|

Eb :-----------------------------|------------------------|
Bb :----10-----------------------|------------------------|
Gb :--7--------------------------|------------------------|
Db :9----------------------------|------------------------|
Ab :-----------------------------|------------------------|
Eb :-----------------------------|------------------------|

Eb :-------------------------------|------------------------|
Bb :-------------------------------|------------------------|
Gb :------(9)----------------------|------------------------|
Db :---11--------------------------|------------------------|
Ab :10-----------------------------|------------------------|
Eb :-------------------------------|------------------------|

Eb :--------------------|------------------------|---------------------|
Bb :--------------------|------------------------|---------------------|
Gb :7-------------------|9-----------------------|12-------------------|
Db :x-------------------|x-----------------------|-x-------------------|
Ab :5-------------------|7-----------------------|10-------------------|
Eb :--------------------|------------------------|---------------------|

Eb :-------------------------|--------------------|------------------------|
Bb :-------------------------|--------------------|------------------------|
Gb :11-----------------------|7-------------------|9-----------------------|
Db :-x-----------------------|x-------------------|x-----------------------|
Ab :-9-----------------------|5-------------------|7-----------------------|
Eb :-------------------------|--------------------|------------------------|

Eb :---------------------|-------------------------|--------------------|
Bb :---------------------|-------------------------|--------------------|
Gb :12-------------------|11-----------------------|7---7-7-7-7-7-7-7-7-|
Db :-x-------------------|-x-----------------------|x---x-x-x-x-x-x-x-x-|
Ab :10-------------------|-9-----------------------|5---5-5-5-5-5-5-5-5-|
Eb :---------------------|-------------------------|--------------------|

Eb :------------------------|-----------------------------|
Bb :------------------------|-----------------------------|
Gb :9---9-9-9-9-9-9-9-9-9-9-|12---12-12-12-12-12-12-12-12-|
Db :x---x-x-x-x-x-x-x-x-x-x-|-x----x--x--x--x--x--x--x--x-|
Ab :7---7-7-7-7-7-7-7-7-7-7-|10---10-10-10-10-10-10-10-10-|
Eb :------------------------|-----------------------------|

Eb :-----------------------------------|--------------------|
Bb :-----------------------------------|--------------------|
Gb :11---11-11-11-11-11-11-11-11-11-11-|7---7-7-7-7-7-7-7-7-|
Db :-x----x--x--x--x--x--x--x--x--x--x-|x---x-x-x-x-x-x-x-x-|
Ab :-9----9--9--9--9--9--9--9--9--9--9-|5---5-5-5-5-5-5-5-5-|
Eb :-----------------------------------|--------------------|

Eb :------------------------|-----------------------------|
Bb :------------------------|-----------------------------|
Gb :9---9-9-9-9-9-9-9-9-9-9-|12---12-12-12-12-12-12-12-12-|
Db :x---x-x-x-x-x-x-x-x-x-x-|-x----x--x--x--x--x--x--x--x-|
Ab :7---7-7-7-7-7-7-7-7-7-7-|10---10-10-10-10-10-10-10-10-|
Eb :------------------------|-----------------------------|

Eb :-----------------------------------|
Bb :-----------------------------------|
Gb :14---14-14-14-14-14-14-14-14-14-14-|
Db :-x----x--x--x--x--x--x--x--x--x--x-|
Ab :12---12-12-12-12-12-12-12-12-12-12-|
Eb :-----------------------------------|

Eb :------------------12-----------------|
Bb :------------14b------12-------r12----|
Gb :------11----------------14b-------14-|
Db :---12--------------------------------|
Ab :14-------14--------------------------|
Eb :-------------------------------------|

Eb :15-b----r--14-------------------------|
Bb :--------------15----15----15----15-p0-|
Gb :-----------------16--*-16----16-------|
Db :--------------------------------------|
Ab :--------------------------------------|
Eb :--------------------------------------|

Eb :------------------12-----------------|
Bb :------------14b------12-------r12----|
Gb :------11----------------14b-------14-|
Db :---12--------------------------------|
Ab :14-------14--------------------------|
Eb :-------------------------------------|

Eb :15-b----r--14-------------------------|
Bb :--------------15----15----15----15-p0-|
Gb :-----------------16--*-16----16-------|
Db :--------------------------------------|
Ab :--------------------------------------|
Eb :--------------------------------------|

Eb :------------------12-----------------|
Bb :------------14b------12-------r12----|
Gb :------11----------------14b-------14-|
Db :---12--------------------------------|
Ab :14-------14--------------------------|
Eb :-------------------------------------|

Eb :------------------------------------|
Bb :12----------------12----------------|
Gb :---14-11-14-11-14--*-14-11-14-11----|
Db :---------------------------------14-|
Ab :------------------------------------|
Eb :------------------------------------|

Eb :------------------12-----------------|15-b----r--14------------------|
Bb :------------14b------12-------r12----|------------------15-----------|
Gb :------11----------------14b-------14-|-------------------------------|
Db :---12--------------------------------|-------------------------------|
Ab :14-------14--------------------------|-------------------------------|
Eb :-------------------------------------|-------------------------------|

Eb :------------------12-----------------|
Bb :------------14b------12-------r12----|
Gb :------11----------------14b-------14-|
Db :---12--------------------------------|
Ab :14-------14--------------------------|
Eb :-------------------------------------|

Eb :15-b----r--14-------------------------|
Bb :--------------15----15----15----15-p0-|
Gb :-----------------16--*-16----16-------|
Db :--------------------------------------|
Ab :--------------------------------------|
Eb :--------------------------------------|

Eb :------------------12-----------------|
Bb :------------14b------12-------r12----|
Gb :------11----------------14b-------14-|
Db :---12--------------------------------|
Ab :14-------14--------------------------|
Eb :-------------------------------------|

Eb :15-b----r--14-------------------------|
Bb :--------------15----15----15----15-p0-|
Gb :-----------------16--*-16----16-------|
Db :--------------------------------------|
Ab :--------------------------------------|
Eb :--------------------------------------|

Eb :------------------12-----------------|
Bb :------------14b------12-------r12----|
Gb :------11----------------14b-------14-|
Db :---12--------------------------------|
Ab :14-------14--------------------------|
Eb :-------------------------------------|

Eb :------------------------------------|
Bb :12----------------12----------------|
Gb :---14-11-14-11-14--*-14-11-14-11----|
Db :---------------------------------14-|
Ab :------------------------------------|
Eb :------------------------------------|

Eb :------------------12-----------------|15-b----r--14------------------|
Bb :------------14b------12-------r12----|------------------15-----------|
Gb :------11----------------14b-------14-|-------------------------------|
Db :---12--------------------------------|-------------------------------|
Ab :14-------14--------------------------|-------------------------------|
Eb :-------------------------------------|-------------------------------|

Eb :---------------------------|------------------------|
Bb :(14)-----------------------|------------------------|
Gb :---------------------------|------------------------|
Db :---------------------------|------------------------|
Ab :---------------------------|------------------------|
Eb :---------------------------|------------------------|

Eb :------------------------|
Bb :*-----------------------|
Gb :------------------------|
Db :------------------------|
Ab :------------------------|
Eb :------------------------|





Comments


Popular Circa Survive tabs & chords
Fever Dreams Bass Tabs
I Felt Free Bass Tabs
The Glorious Nosebleed Bass Tabs
Dyed In The Wool 1 Chords
Great Golden Baby 2 Tabs
In Fear And Faith 1 Tabs
Through The Desert Alone Tabs
Travel Hymn Tabs
Devil Song Ukulele
I Felt Free Ukulele


Song lyrics



↑ Back to top | Tablatures and chords are parodies/interpretations of the original songs. You may use it for private study, scholarship, research or language learning purposes only
© 2014 AZChords.com Contact us | Privacy policy | DMCA | Add/correct tabs | Request tabs | Top 50 tabs