» » »

Circa Survive, In Fear And Faith Bass tabs (ver.1)

Artists:  A B C D E F G H I J K L M N O P Q R S T U V W X Y Z # 

In Fear And Faith Bass tabs (ver.1)

Circa Survive Tabs
Rating:
0/5 (0 votes)
Hard to play? Try these video lessons and learn fast.
                Intro 0:00 - 0:17
[guitar only]

Verse 0:17 - 0:44
G:5-7-------5-7--------5-7-------------35--|
D:---555555-----555555-----555555--353---3-|
A:-----------------------------------------|
D:-----------------------------------------|

G:3-5--------3-5--------3-5--------32---55-------|
D:----333333-----333333-----333333---5----3 All--| X2
A:-----------------------------------------------|
D:-----------------------------------------------|

Prechorus 0:44 - 0:57
G:------------------------|
D:5-5-3~---5-5-1~---------| X2
A:------------------------|
D:------------------------|

Verse 0:57 - 1:25
G:------777777-------777777-------777777------55--|
D:5-5-3--------5-5-3--------5-5-3---------553---3-|
A:------------------------------------------------|
D:------------------------------------------------|

G:------555555-------555555-------555555--32--55-------|
D:3-3-1--------3-3-1--------3-3-1-----------5---3------|
A:----------------------------------------------- All--| X2
D:-----------------------------------------------------|

Prechorus 1:25 - 1:38
G:------------------------|
D:5-5-3~---5-5-1~---------| X2
A:------------------------|
D:------------------------|

Chorus 1:38 - 2:11
G:----------------------------------------------------|
D:----------------------------------------------------|
A:-------------------------------------3~--------1~---| X2
D:3/5-5-5555-555-55/7-7-7777-777-7-0-0-------0-0------|

Verse 2:12 - 2:32
G:5-7-------|
D:---555555-|
A:----------| X12
D:----------|

2:32 - 2:41
[guitar only]

Chorus/Outro 2:42 - 3:35
G:---
D:---
A:---
D:0/-

G:----------------------------------------------------|
D:----------------------------------------------------|
A:-------------------------------------3~--------1~---| X2
D:3/5-5-5555-555-55/7-7-7777-777-7-0-0-------0-0------|

G:----------------------------------------------|
D:----------------------------------------------|
A:-------------------------------------3-3-3----|
D:3/5-5-5555-555-55/7-7-7777-777-7-0-0-------5~-|
            

comments powered by Disqus
↑ Back to top | Circa Survive Bass for In Fear And Faith. Lyrics for acoustic guitar and electric guitar. Tablatures and chords are parodies/interpretations of the original songs. You may use it for private study, scholarship, research or language learning purposes only