>
 >
Airplane Dance

Airplane Dance Guitar Tabs

Circa Survive - Airplane Dance chords, tabs, tablatures, lyrics

Guitar lessons | Add/correct | Request | Top 50 tabs Artists:  A B C D E F G H I J K L M N O P Q R S T U V W X Y Z 0-9

Airplane Dance Guitar Tabs – Circa Survive

CD, Sheet music, Poster

Do you like Airplane Dance? Share with your friends now
Tabs
-------------------------------------------------------------------------------
-------------------------------------------------------------------------------

Tuning: Eb-Ab-Db-Gb-Bb-Eb

*There's (2) guitar parts in this song, I only tabbed out the lead guitar*

Verse 1 

e|-----------------------------------------------------------|
B|-----------------------------------------------------------|
G|-----4-4h6b-6----4-4h6b-6----4-4h6b-6----------------------| repeat 6x
D|-----4-4h6b-6----4-4h6b-6----4-4h6b-6----------------------|
A|--0--------------------------------------6-6-6/9-9-9-------|
E|-----------------------------------------4-4-4/7-7-7-------|

Pre-Chorus

e|---------------------------------------|
B|---------------------------------------|
G|---------------------------------------|
D|--6-6-6/9-9-9-9----4-4-4/6-6-6-6-------|
A|--x-x-x-x-x-x-x----x-x-x-x-x-x-x-------|
E|--4-4-4/7-7-7-7----2-2-2/4-4-4-4-------|

Chorus 1

e|---------------------------------------------------------------|
B|---------------------------------------------------------------|
G|--1-1-1~--x---6-6-6--9-9-9-9----1-1-1-1---6-6-6--9-9-9-9-------|
D|--2-2-2~--x---6-6-6--9-9-9-9----2-2-2-2---6-6-6--9-9-9-9-------|
A|--2-2-2~--x---4-4-4--7-7-7-7----2-2-2-2---4-4-4--7-7-7-7-------|
E|--0-0-0~--x---------------------0-0-0-0------------------------|

e|---------------------------------------------------------|
B|--9-9-9--------------------------------------------------|
G|--9-9-9--8-8-8--6-6-6--4-4-4--2-2-2-2-2--4-4-4-4-4-------|
D|--9-9-9--9-9-9--6-6-6--4-4-4--2-2-2-2-2--4-4-4-4-4-------|
A|--7-7-7--6-6-6--4-4-4--2-2-2--0-0-0-0-0--2-2-2-2-2-------|
E|---------------------------------------------------------|

Verse 2 - "It comes easier"

e|-----------------------------------------------------------|
B|-----------------------------------------------------------|
G|-----4-4h6b-6----4-4h6b-6----4-4h6b-6----------------------| repeat 6x
D|-----4-4h6b-6----4-4h6b-6----4-4h6b-6----------------------|
A|--0--------------------------------------6-6-6/9-9-9-------|
E|-----------------------------------------4-4-4/7-7-7-------|

Pre-Chorus

e|---------------------------------------|
B|---------------------------------------|
G|---------------------------------------|
D|--6-6-6/9-9-9-9----4-4-4/6-6-6-6-------|
A|--x-x-x-x-x-x-x----x-x-x-x-x-x-x-------|
E|--4-4-4/7-7-7-7----2-2-2/4-4-4-4-------|

Chorus 2

e|---------------------------------------------------------------|
B|---------------------------------------------------------------|
G|--1-1-1~--x---6-6-6--9-9-9-9----1-1-1-1---6-6-6--9-9-9-9-------|
D|--2-2-2~--x---6-6-6--9-9-9-9----2-2-2-2---6-6-6--9-9-9-9-------|
A|--2-2-2~--x---4-4-4--7-7-7-7----2-2-2-2---4-4-4--7-7-7-7-------|
E|--0-0-0~--x---------------------0-0-0-0------------------------|

e|---------------------------------------------------------|
B|--9-9-9--------------------------------------------------|
G|--9-9-9--8-8-8--6-6-6--4-4-4--2-2-2-2-2--4-4-4-4-4-------|
D|--9-9-9--9-9-9--6-6-6--4-4-4--2-2-2-2-2--4-4-4-4-4-------|
A|--7-7-7--6-6-6--4-4-4--2-2-2--0-0-0-0-0--2-2-2-2-2-------|
E|---------------------------------------------------------|

Bridge - "So what you ended up having to say"
e|------------------------------------------------------------------------|
B|------------------------------------------------------------------------|
G|--6-6-6--4-4-4--1-1-1-1--6-6-6--4-4-4--1-1-1-1--6-6-6--4-4-4--9-9-9-----|
D|--6-6-6--4-4-4--2-2-2-2--6-6-6--4-4-4--2-2-2-2--6-6-6--4-4-4--9-9-9-----|
A|--4-4-4--2-2-2--2-2-2-2--4-4-4--2-2-2--2-2-2-2--4-4-4--2-2-2--7-7-7-----|
E|----------------0-0-0-0----------------0-0-0-0--------------------------|

e|-------------------------------|
B|-----------------------1~------|
G|--2-2-2--6-6-6--8-8-8--2~------|
D|--2-2-2--6-6-6--8-8-8--2~------|
A|--0-0-0--4-4-4--6-6-6--0~------|
E|-------------------------------|

Chorus - "And even off the aircraft"
e|---------------------------------------------------|
B|---------------------------------------------------|
G|--6-6-6--9-9-9-9----1-1-1-1---6-6-6--9-9-9-9-------|
D|--6-6-6--9-9-9-9----2-2-2-2---6-6-6--9-9-9-9-------|
A|--4-4-4--7-7-7-7----2-2-2-2---4-4-4--7-7-7-7-------|
E|--------------------0-0-0-0------------------------|

e|---------------------------------------------------------|
B|--9-9-9--------------------------------------------------|
G|--9-9-9--8-8-8--6-6-6--4-4-4--2-2-2-2-2--4-4-4-4-4-------|
D|--9-9-9--9-9-9--6-6-6--4-4-4--2-2-2-2-2--4-4-4-4-4-------|
A|--7-7-7--6-6-6--4-4-4--2-2-2--0-0-0-0-0--2-2-2-2-2-------|
E|---------------------------------------------------------|

Outro - "On the plane"

e|--0~--------0~-----------------------------------------------|
B|--0~---0~---0~---0~------------------------------------------|
G|--1~---8~---9~---8~---2-2-2-2-----------2-2-2-2--4-4-4-4-----|
D|--2~---8~---9~---8~---2-2-2-2--4-4-4-4--2-2-2-2--4-4-4-4-----|
A|--2~---6~---7~---6~---0-0-0-0--4-4-4-4--0-0-0-0--2-2-2-2-----|
E|--0~---0~---0~---0~------------2-2-2-2-----------------------|

e|--0~--------0~-----------------------------------------------|
B|--0~---0~---0~---0~------------------------------------------|
G|--9~---8~---9~---8~---2-2-2-2-----------2-2-2-2--4-4-4-4-----| repeat 4x
D|--9~---8~---9~---8~---2-2-2-2--4-4-4-4--2-2-2-2--4-4-4-4-----|
A|--7~---6~---7~---6~---0-0-0-0--4-4-4-4--0-0-0-0--2-2-2-2-----|
E|--0~---0~---0~---0~------------2-2-2-2-----------------------|

e|---0~----|
B|---0~----|
G|---9~----|
D|---9~----|
A|---7~----|
E|---0~----|




************************************

| /   slide up
| \   slide down
| h   hammer-on
| p   pull-off
| ~   vibrato
| +   harmonic
| x   Mute note
| b   Bend
| pb  Pre-bend
| br  Bend release
| pbr Pre-bend release
| brb Bend release bend

************************************





Comments


Popular Circa Survive tabs & chords
Act Appalled Chords
Get Out 2 Chords
Sharp Practice Chords
In Fear And Faith Intro Tabs
Julian 1 Tabs
Meet Me In Montauk Tabs
Miracle Sun Tabs
Sharp Practice Tabs
The Difference Between Medicine And Poison Is In The Dose Tabs
Ill Find A Way Ukulele


Song lyrics



↑ Back to top | Tablatures and chords are parodies/interpretations of the original songs. You may use it for private study, scholarship, research or language learning purposes only
© 2014 AZChords.com Contact us | Privacy policy | DMCA | Add/correct tabs | Request tabs | Top 50 tabs