» » »

Circa Survive, Every Way Tabs (ver.1)

Artists:  A B C D E F G H I J K L M N O P Q R S T U V W X Y Z # 

Every Way Tabs (ver.1)

Circa Survive Tabs
 Rating:
3.1/5 (7 votes)
Every Way lessons Tabs too difficult? Try these video lessons and learn fast
1
                -------------------------------------------------------------------------------
-------------------------------------------------------------------------------

Tuning: D-G-C-F-A-D (1step down from standard)


Verse 1 - "I will find a different"

d|---5--------------------------------------------|
A|---7-----7-----7-----7--------------------------|
F|---7-----7-----7-----7--------------------------| repeat 2x
C|---0-----5-----5-----5--------------------------|
G|---------------7--------------------------------|
D|------------------------------------------------|

Chorus 1 - "every way you wonder"
d|---5-----------------------------------------|
A|---7-----7-----7-----7-----------------------|
F|---7-----7-----7-----7-----------------------|
C|---0-----5-----x-----5-----------------------|
G|---------7-----7-----------------------------|
D|---------------------------------------------|

"I'm so mistaken, lost my direction"

d|---------5-----------------------------------------|
A|---7-----7--7-----7-----7--7--7--------------------|
F|---7-----7--7-----7-----7--7--7--------------------|
C|---x-----0--x-----x-----5--4--5--------------------|
G|---x--------x-----7--------------------------------|
D|---7--------5--------------------------------------|

Verse 2 - "I would find a different"

d|---5--------------------------------------------|
A|---7-----7-----7-----7--------------------------|
F|---7-----7-----7-----7--------------------------|
C|---0-----5-----5-----5--------------------------|
G|---------------7--------------------------------|
D|------------------------------------------------|

Chorus 2 - "every way you wonder"

d|---5-----------------------------------------|
A|---7-----7-----7-----7-----------------------|
F|---7-----7-----7-----7-----------------------|
C|---0-----5-----x-----5-----------------------|
G|---------7-----7-----------------------------|
D|---------------------------------------------|

"I'm so mistaken, lost my direction"

d|---5-----------------------------------------|
A|---7-----7-----7-----7-----------------------|
F|---7-----7-----7-----7-----------------------|
C|---0-----5-----x-----5-----------------------|
G|---------7-----7-----------------------------|
D|---------------------------------------------|

"every way you wonder"

d|---------5-----------------------------------------|
A|---7-----7--7-----7-----7--7--7--------------------|
F|---7-----7--7-----7-----7--7--7--------------------|
C|---x-----0--x-----x-----5--4--5--------------------|
G|---x--------x-----7--------------------------------|
D|---7--------5--------------------------------------|

Outro

d|---5-----------------------------------------|
A|---7-----7-----7-----7-----------------------|
F|---7-----7-----7-----7-----------------------|
C|---0-----5-----x-----5-----------------------|
G|---------7-----7-----------------------------|
D|---------------------------------------------|
            
Submit corrections

comments powered by Disqus
↑ Back to top | Circa Survive Tabs for Every Way. Lyrics for acoustic guitar and electric guitar. 1 Tablatures and chords are parodies/interpretations of the original songs. You may use it for private study, scholarship, research or language learning purposes only