>
 >
Act Appalled 2

Act Appalled 2 Guitar Tabs

Circa Survive - Act Appalled 2 chords, tabs, tablatures, lyrics

Guitar lessons | Add/correct | Request | Top 50 tabs Artists:  A B C D E F G H I J K L M N O P Q R S T U V W X Y Z 0-9

Act Appalled 2 Guitar Tabs – Circa Survive

CD, Sheet music, Poster

Do you like Act Appalled 2? Share with your friends now
Bass TabsChordsChords v2TabsTabs v2UkuleleUkulele v2
CIRCA SURVIVE
Act Appalled (Acoustic)

This is a simplified version of the acoustic performance on Fuse's
"Steven's Untitled Rock Show" for one guitar. I've seen a few
requests, and I really wanted to learn it myself so I gave it a go.

Tuning - Half a step down (Eb Ab Db Gb Bb Eb)

Chords:
Am    (x02210)
F     (x33210)
Dsus2 (xx0230)
G     (320033)
E     (022100)
G#    (x6654x)

Intro:
------
Am         F
  Will you walk straight?
Am          F
  We're not like them

INTERLUDE:
----------
     1 & 2 & 3 & 4 & 1 & 2 & 3   & 4 & 1 & 2 & 3 & 4 & 1 & 2 & 3 & 4

Eb||-0---------------------------------0-------------------------------|
Bb||-2---------------------------------2-------------------------------|
Gb||-2---x-9---7---9---7---4-4/5-5-x---2---x-9---7---4-4---------------|
Db||-1---x-x---x---x---x---x-x-x---x---1---x-x---x---x-x---9---10--12--|
Ab||-0---x-7---5---7---5---2-2/3-3-x---0---x-7---5---2-2---------------|
Eb||-------------------------------------------------------------------|

Verse 1:
--------
     Am            F
  To pull them in, make it seem like your in trouble
  Am            F
  Make a sound, fake it enough.
  D5            F
  What made you so scared?
  Am                             G
  Maybe your mistaken for some - one who cares.

Chorus:
-------
  F           Am           G      
  If you re - member, re - member
  E                       F           G
  I've been trying to get back to the center and
  F             E               
  I'm sure it's not like it was before

INTERLUDE

Verse 2:
--------
     Am               F
  To make them drink, tell them that it's only water
  Am                    F
  No one leaves 'till we figure this out
  D5            F
  What made you so scared?
  Am                             G
  Maybe your mistaken for some - one who cares.

CHORUS

Breakdown:
----------

Eb||----------12----------------------12-----------------|
Bb||----12----------12----12----10----------10----10-----|
Gb||-14----14----14----14----12----12----12----12----12--|
Db||-----------------------------------------------------|
Ab||-----------------------------------------------------|
Eb||-----------------------------------------------------|

Eb||----------8---------------------8--------------|
Bb||----10---------10----10----10-------10---10----|
Gb||-10----10---10----10----10----9---9----9----9--|
Db||-----------------------------------------------|
Ab||-----------------------------------------------|
Eb||-----------------------------------------------|

Play the above through twice, you can also substitute the chords
for this riff the first time through the following lyrics, but
I prefer to just play the chords.

  Am      F      F     G#
  Patience
       Am         F         F          G#
  Both we and our words are over pro - duced
  Am       F       F      G#
  By influence
  Am       F       F      G#
  By influence
  Am       F       F      G#
  Patience
       Am         F         F          G#
  Both we and our words are over pro - duced
  Am       F       F      G#
  By influence
  Am       F       F      G
  By influence    -   I'm only asking

CHORUS (Missing final "before". End on Am)





Comments


Popular Circa Survive tabs & chords
In Fear And Faith 4 Bass Tabs
Stop The Fucking Car Bass Tabs
A Long Time Coming Chords
Devil Song Chords
Every Way Chords
Sharp Practice Chords
In Fear And Faith Drum Tabs
Baby Girl 1 Tabs
Close Your Eyes To See Tabs
Lazarus Ukulele


Song lyrics



↑ Back to top | Tablatures and chords are parodies/interpretations of the original songs. You may use it for private study, scholarship, research or language learning purposes only
© 2014 AZChords.com Contact us | Privacy policy | DMCA | Add/correct tabs | Request tabs | Top 50 tabs