>
 >
Act Appalled

Act Appalled Guitar Tabs

Circa Survive - Act Appalled chords, tabs, tablatures, lyrics

Guitar lessons | Add/correct | Request | Top 50 tabs Artists:  A B C D E F G H I J K L M N O P Q R S T U V W X Y Z 0-9

Act Appalled Guitar Tabs – Circa Survive

CD, Sheet music, Poster

Do you like Act Appalled? Share with your friends now
Bass TabsChordsChords v2TabsTabs v2UkuleleUkulele v2
Label: Equal Vision Records
Release Date: April 19, 2005


Gtr I (D A D G B E) - 'Untitled'
Gtr II (D A D G B E) - 'Untitled'
Gtr III (D A D G B E) - 'Untitled'
Gtr IV (D A D G B E) - 'Untitled'

  Intro
   Q=161
   Bb
  4/4
   Gtr I
    E  E  E  E  E  E  E  E    E  E  E  E  E  E  E  E
||--------------------------|-------------------------|
||o-------------------------|-------------------------|
||--15-15-15-15-15-15-15-15-|-15-15-15-15-15-15-15-15-|
||--12-12-12-12-12-12-12-12-|-12-12-12-12-12-12-12-12-|
||o-13-13-13-13-13-13-13-13-|-13-13-13-13-13-13-13-13-|
||--------------------------|-------------------------|
|
|   Gtr II
|    E  E  E  E  E  E  E  E    E  E  E  E  E  E  E  E
||--------------------------|-------------------------|
||o-------------------------|-------------------------|
||--14-14-14-14-14-14-14-14-|-14-14-14-14-14-14-14-14-|
||--12-12-12-12-12-12-12-12-|-12-12-12-12-12-12-12-12-|
||o-13-13-13-13-13-13-13-13-|-13-13-13-13-13-13-13-13-|
||--------------------------|-------------------------|


 Bb5
  E  E  E  E  E  E  E  E    E  E  E  E  E  E  E  E
|-------------------------|---------------------------||
|-------------------------|--------------------------o||
|-15-15-15-15-15-15-15-15-|-15-15-15-15-15-15-15-15---||
|-15-15-15-15-15-15-15-15-|-15-15-15-15-15-15-15-15---||
|-13-13-13-13-13-13-13-13-|-13-13-13-13-13-13-13-13--o||
|-------------------------|---------------------------||
|
|  E  E  E  E  E  E  E  E    E  E  E  E  E  E  E  E
|-------------------------|---------------------------||
|-------------------------|--------------------------o||
|-14-14-14-14-14-14-14-14-|-14-14-14-14-14-14-14-14---||
|-12-12-12-12-12-12-12-12-|-12-12-12-12-12-12-12-12---||
|-15-15-15-15-15-15-15-15-|-15-15-15-15-15-15-15-15--o||
|-------------------------|---------------------------||


Pre-Verse
 $
 G5                                 F5
 E  E E E E E E E   E   E E E E E E E
|------------------|-------------------|
|------------------|-------------------|
|-5--0-3-0-5-0-3-0-|-5---0-3-0-5-0-3-0-|
|------------------|-------------------|
|------------------|-------------------|
|------------------|-------------------|
|
| Q.     H       E   H..             E
|------------------|-------------------|
|------------------|-------------------|
|------------------|-------------------|
|-5\---------------|-----------------3-|
|-5\---------------|-----------------3-|
|-5\---------------|-----------------3-|


 G5
 E  E E E E E E E   E E E E E     +E  +E  +E
|------------------|----------------------------|
|------------------|----------------------------|
|-5--0-3-0-5-0-3-0-|-5-0-3-0-5b5.5-(5)-(5)-(5)--|
|------------------|----------------------------|
|------------------|----------------------------|
|------------------|----------------------------|
|
| Q.     H       E   W
|------------------|----------------------------|
|------------------|----------------------------|
|------------------|----------------------------|
|-5\---------------|----------------------------|
|-5\---------------|----------------------------|
|-5\---------------|----------------------------|


Verse
 N.C.
 Q.   Q.   Q         Q.    Q.    S     +S  +E
|------------------|----------------------------|
|------------------|----------------------------|
|------------------|----------------------------|
|------------------|----------------------------|
|------5----3------|-/8----10\------------------|
|-5----------------|--------------5b5.5-(5)-(5)-|
|
|                     ~~~~~~~~~~~~~~~~~~
| Q.   Q.   Q        +H.         +Q
|------------------|----------------------------|
|------------------|----------------------------|
|------------------|----------------------------|
|------5----7b7.5r=|=(7)---------(7)\-----------|
|------------------|----------------------------|
|-5----------------|----------------------------|


 Q.   Q.   Q     Q.   Q  +E      +Q
|--------------|-----------------------|
|--------------|-----------------------|
|--------------|-----------------------|
|--------------|-----------------------|
|------5----3--|-/8----3--(3)b3.5r(3)--|
|-5------------|-----------------------|
|
|                 ~~~
| Q.   Q.   Q     W
|--------------|-----------------------|
|--------------|-----------------------|
|--------------|-----------------------|
|------3-------|-----------------------|
|-----------1--|-/3--------------------|
|-1------------|-----------------------|


 Q.   Q.   Q         Q.    Q.    Q      Q.   Q.   Q     Q.   H    +E
|------------------|-------------------|--------------|-----------------|
|------------------|-------------------|--------------|-----------------|
|------------------|-------------------|--------------|-----------------|
|------------------|-------10\---------|--------------|-----------------|
|------5----3------|-/8----------------|------5----3--|-/8----3----(3)--|
|-5----------------|--------------5----|-5------------|-----------------|
|
|                     ~~~~~~~~~~~~~~~~                   ~~~
| Q.   Q.   Q        +H.         +Q      Q.   Q.   Q     W
|------------------|-------------------|--------------|-----------------|
|------------------|-------------------|--------------|-----------------|
|------------------|-------------------|--------------|-----------------|
|------5----7b7.5r=|=(7)---------(7)\--|------3-------|-----------------|
|------------------|-------------------|-----------1--|-/3--------------|
|-5----------------|-------------------|-1------------|-----------------|


 E  E E Q   E Q         E   E E Q  E  E   E
|---------------------|----------------------|
|---------------------|----------------------|
|----7---5-----7------|-----10---7-----5---7-|
|-8----8-----8--------|--8-----8----8--------|
|---------------------|----------------------|
|---------------------|----------------------|
|
|                        ~~~~~~~~~~~~~~~~~~
| Q.     Q.    Q        +H.           +Q
|---------------------|----------------------|
|---------------------|----------------------|
|---------------------|----------------------|
|--------5-----7b7.5r=|=(7)-----------(7)\---|
|---------------------|----------------------|
|-5-------------------|----------------------|


 E  E E Q   E Q     E  E E Q  E E E
|-----------------|-------------------|
|-----------------|-------------------|
|----7---5-----7--|----10---7----5-7--|
|-8----8-----8----|--8----8----8------|
|-----------------|-------------------|
|-----------------|-------------------|
|
|                    ~~
| Q.     Q.    Q     W
|-----------------|-------------------|
|-----------------|-------------------|
|-----------------|-------------------|
|--------3--------|-------------------|
|--------------1--|-/3----------------|
|-1---------------|-------------------|


  E  E  E  Q     E  Q       E  E  E  Q     E  E  E
|-------------------------|-------------------------|
|-------------------------|-------------------------|
|-----7-----5--------7----|----10-----7--------5--7-|
|--8-----8--------8-------|--8-----8--------8-------|
|-------------------------|-------------------------|
|-------------------------|-------------------------|
|
|  E  E  E  E  E  E  E  E    E  E  E  E  E  E  E  E
|-------------------------|-------------------------|
|-------------------------|-------------------------|
|-------------------------|-------------------------|
|----------10-12-10-------|----10-12-10-------------|
|-10-12-10----------10-12-|-10----------10-12-10-12-|
|-------------------------|-------------------------|


  E  E  E  Q     E  E E     E  Q  E E E E E
|------------------------|---------------------|
|--8--8--8--8-----8--8-8-|---8--8--8-8-8-8-8/--|
|--7--7--7--7-----7--7-7-|---7--7--7-7-7-7-7/--|
|------------------------|---------------------|
|------------------------|---------------------|
|------------------------|---------------------|
|
|  E  E  E  E  E  E  Q      +W
|------------------------|---------------------|
|------------------------|---------------------|
|------------------------|---------------------|
|----------10-12-10-10---|-(10)----------------|
|-10-12-10---------------|---------------------|
|------------------------|---------------------|


Chorus
 N.C.
  E  E  E  E  E  E  E  E    E  E  E  E  E  E  Q
|-------------------------|------------------------|
|-------------------------|------------------------|
|-12-12-12-12-12-12-12-12-|-12-12-12-12-12s14-14\--|
|--x--x--x--x--x--x--x--x-|--x--x--x--x--x--x--x---|
|-10-10-10-10-10-10-10-10-|-10-10-10-10-10s12-12\--|
|-------------------------|------------------------|
|
|  TP                        TP
|  W                         W
|-------------------------|------------------------|
|-------------------------|------------------------|
|-15----------------------|-15---------------------|
|--x----------------------|--x---------------------|
|-13----------------------|-13---------------------|
|-------------------------|------------------------|


  E E E E +E  E  E  E    E Q  E E  E  Q
|----------------------|-------------------|
|----------------------|-------------------|
|--7-7-7-5-(5)-5-10-10-|-10-7--7-7-10-10---|
|--x-x-x-x-(x)-x--x--x-|--x-x--x-x--x--x---|
|--5-5-5-3-(3)-3--8--8-|--8-5--5-5--8--8---|
|----------------------|-------------------|
|
|  TP                     TP
|  W                      W
|----------------------|-------------------|
|----------------------|-------------------|
|-15-------------------|-14----------------|
|--x-------------------|--x----------------|
|-13-------------------|-12----------------|
|----------------------|-------------------|


 D5
  E  E  E  E   E  E  E  E    E  E   E  E  E  E  E  E
|--------------------------|--------------------------|
|--------------------------|--------------------------|
|-11-11-11-11--11-11-11-11-|-11-11--11-11-11-11-11-11-|
|--x--x--x--x---x--x--x--x-|--x--x---x--x--x--x--x--x-|
|--9--9--9--9---9--9--9--9-|--9--9---9--9--9--9--9--9-|
|--------------------------|--------------------------|
|
|  E  E  E  Q      E  E  E    E  Q      E  E  E  E  E
|--------------------------|--------------------------|
|--------------------------|--------------------------|
|--------------------------|--------------------------|
|--0--0--0-/7\-----0--0--0-|--0-/7\-----0--0--0--0--0-|
|--0--0--0--x------0--0--0-|--0--x------0--0--0--0--0-|
|--0--0--0-/7\-----0--0--0-|--0-/7\-----0--0--0--0--0-|


 C5               D5
  E   E  E  Q   E  E  E     E  Q   E  E  E  Q
|------------------------|------------------------|
|------------------------|------------------------|
|-12--12-12\----12-12-12-|--12\----12-12-14-14\---|
|--x---x--x--1---x--x--x-|---x--1---x--x--x--x----|
|-10--10-10\-1--10-10-10-|--10\-1--10-10-12-12\---|
|------------1-----------|------1-----------------|
|
|  TP               TP       TP
|  H.               Q       +W
|------------------------|------------------------|
|------------------------|------------------------|
|------------------------|------------------------|
|-10---------------12----|-(12)-------------------|
|-10---------------12----|-(12)-------------------|
|-10---------------12----|-(12)-------------------|


 N.C.
  E  E  E  E  E  E  E  E    E  E  E  E  E  E  Q
|-------------------------|------------------------|
|-------------------------|------------------------|
|-12-12-12-12-12-12-12-12-|-12-12-12-12-12s14-14\--|
|--x--x--x--x--x--x--x--x-|--x--x--x--x--x--x--x---|
|-10-10-10-10-10-10-10-10-|-10-10-10-10-10s12-12\--|
|-------------------------|------------------------|
|
|  E  E  E  E  E  E  E  E    E  E  E  E  E  E  Q
|-------------------------|------------------------|
|-------------------------|------------------------|
|-17-17-17-17-17-17-17-17-|-17-17-17-17-17s19-19\--|
|--x--x--x--x--x--x--x--x-|--x--x--x--x--x--x--x---|
|-15-15-15-15-15-15-15-15-|-15-15-15-15-15s17-17\--|
|-------------------------|------------------------|


                    D.S.
  Q.    Q.    Q     +W
|-----------------|----------|
|-----------------|----------|
|-11----11----11--|-(11)-----|
|--x-----x-----x--|--(x)-----|
|--9-----9-----9--|--(9)-----|
|-----------------|----------|
|
|  Q.    Q.    Q     +W
|-----------------|----------|
|-----------------|----------|
|-15----15----14--|-(14)-----|
|--x-----x-----x--|--(x)-----|
|-13----13----12--|-(12)-----|
|-----------------|----------|


  Interlude
   N.C.(Bb5/G)               N.C.(G5/Eb)
   Gtr III
    E  E  E  Q.       Q       H.            Q
||-----------10-------------|--------------------|
||o----10-------------------|--------------------|
||--12----12----------12s===|=10------------10s==|
||--------------------------|--------------------|
||o-------------------------|--------------------|
||--------------------------|--------------------|
|
|   Gtr IV
|    E  E  E  E   E E  E  E    E  E E E E E  E E
||--------------------------|--------------------|
||o-------------------------|--------------------|
||-----------10----------10-|---------7--------7-|
||------8-----------8-------|-----5-------5------|
||o-10----10-----10---10----|--6----6---6----6---|
||--------------------------|--------------------|


                    N.C.(Bb5/F#)
 H.           Q     E  E E  Q.     Q      4x
|------------------|-----------------------||
|------------------|--------11------------o||
|-8------------8---|-8-10-8---------7/-----||
|------------------|-----------------------||
|------------------|----------------------o||
|------------------|-----------------------||
|
| E  E E E E E E E   E  E E  E  E E E   E  4x
|------------------|-----------------------||
|------------------|----------------------o||
|--------7-------7-|--------10---------10--||
|----5-------5-----|----8---------8--------||
|-6----6---6---6---|-9----9-----9---9-----o||
|------------------|-----------------------||


   N.C.
   Gtr III
    E  E  E  Q.     Q        H.          Q
||-----------10------------|-----------------|
||o----10------------------|-----------------|
||--12----12--------12s====|=10----------10s=|
||-------------------------|-----------------|
||o------------------------|-----------------|
||-------------------------|-----------------|
|
|   Gtr II
|    E  E  q     Q   E S S    E  Q  Q  E  Q
||-------------------------|-----------------|
||o------------------------|-----------------|
||---x--x--7-----7---x-x-x-|--x--5S=7--x--7--|
||---x--x--x-----x---x-x-x-|--x--x--x--x--x--|
||o--x--x--5-----5---x-x-x-|--x--3S=5--x--5--|
||-------------------------|-----------------|


 H.         Q    E  E E  Q.    Q
|---------------|---------------------||
|---------------|--------11----------o||
|-8----------8--|-8-10-8--------7/----||
|---------------|---------------------||
|---------------|--------------------o||
|---------------|---------------------||
|
| E  Q  Q  E Q    E  Q    Q   E Q
|---------------|---------------------||
|---------------|--------------------o||
|-x--5S=7--x-7--|-x--5S===8---x-7-----||
|-x--x--x--x-x--|-x--x----x---x-x-----||
|-x--3S=5--x-5--|-x--3S===6---x-5----o||
|---------------|---------------------||


   Gtr I
    E  E  E  Q.      Q      H.           Q
||-----------10-----------|-------------------|
||o----10-----------------|-------------------|
||--12----12---------12s==|=10-----------10s==|
||------------------------|-------------------|
||o-----------------------|-------------------|
||------------------------|-------------------|
|
|    E  E  E  E  E E  E E    E E E E E E  E E
||------------------------|-------------------|
||o-----------------------|-------------------|
||---7--7--7--7--7-7--7-7-|--5s7-7-7-7-7--7-7-|
||---x--x--x--x--x-x--x-x-|--x-x-x-x-x-x--x-x-|
||o--5--5--5--5--5-5--5-5-|--3s5-5-5-5-5--5-5-|
||------------------------|-------------------|


 H.          Q     E  E E  Q.       Q
|-----------------|-------------------------||
|-----------------|--------11--------------o||
|-8-----------8---|-8-10-8-----------7/-----||
|-----------------|-------------------------||
|-----------------|------------------------o||
|-----------------|-------------------------||
|
| E E E E E E E E   E  E E  E  E  E  E   E
|-----------------|-------------------------||
|-----------------|------------------------o||
|-5s7-7-7-7-7-7-7-|-8--8-8--8--8s10-10--10--||
|-x-x-x-x-x-x-x-x-|-x--x-x--x--x--x--x---x--||
|-3s5-5-5-5-5-5-5-|-6--6-6--6--6s=8--8---8-o||
|-----------------|-------------------------||


  E  E  E  E  E  E  E  E    E  E  E  E  E  E  E  E
|-------------------------|-------------------------|
|-------------------------|-------------------------|
|-15-15-15-15-15-15-15-15-|-15-15-15-15-15-15-15-15-|
|--x--x--x--x--x--x--x--x-|--x--x--x--x--x--x--x--x-|
|-13-13-13-13-13-13-13-13-|-13-13-13-13-13-13-13-13-|
|-------------------------|-------------------------|
|
|  E  E  E  E  E  E  E  E    E  E  E  E  E  E  E  E
|-------------------------|-------------------------|
|-------------------------|-------------------------|
|--7--7--7--7--7--7--7--7-|--7--7--7--7--7--7--7--7-|
|--x--x--x--x--x--x--x--x-|--x--x--x--x--x--x--x--x-|
|--5--5--5--5--5--5--5--5-|--5--5--5--5--5--5--5--5-|
|-------------------------|-------------------------|


  E  E  E  E  E  E  E  E    E  E  E  E  E  E  E  E
|-------------------------|--------------------------|
|-------------------------|--------------------------|
|-15-15-15-15-15-15-15-15-|-15-15-15-15-15-15-15-15--|
|--x--x--x--x--x--x--x--x-|--x--x--x--x--x--x--x--x--|
|-13-13-13-13-13-13-13-13-|-13-13-13-13-13-13-13-13--|
|-------------------------|--------------------------|
|
|  E  E  E  E  E  E  E  E    E  E  E  E  E  E  E  E
|-------------------------|--------------------------|
|-------------------------|--------------------------|
|--7--7--7--7--7--7--7--7-|--8--8--8--8--8s10-10-10--|
|--x--x--x--x--x--x--x--x-|--x--x--x--x--x--x--x--x--|
|--5--5--5--5--5--5--5--5-|--6--6--6--6--6s=8--8--8--|
|-------------------------|--------------------------|


  E  E  E  E  E  E  E  E    E  E  E  E  E  E  E  E
|-------------------------|-------------------------|
|-------------------------|-------------------------|
|-15-15-15-15-15-15-15-15-|-15-15-15-15-15-15-15-15-|
|--x--x--x--x--x--x--x--x-|--x--x--x--x--x--x--x--x-|
|-13-13-13-13-13-13-13-13-|-13-13-13-13-13-13-13-13-|
|-------------------------|-------------------------|
|
|  E  E  E  E  E  E  E  E    E  E  E  E  E  E  E  E
|-------------------------|-------------------------|
|-------------------------|-------------------------|
|--7--7--7--7--7--7--7--7-|--7--7--7--7--7--7--7--7-|
|--x--x--x--x--x--x--x--x-|--x--x--x--x--x--x--x--x-|
|--5--5--5--5--5--5--5--5-|--5--5--5--5--5--5--5--5-|
|-------------------------|-------------------------|


  E  E  E  E  E  E  E  E    E  E  E  E  E  E  E  E
|-------------------------|--------------------------|
|-------------------------|--------------------------|
|-15-15-15-15-15-15-15-15-|-15s19-19-19-19-19-19-19--|
|--x--x--x--x--x--x--x--x-|--x--x--x--x--x--x--x--x--|
|-13-13-13-13-13-13-13-13-|-13-13-13-13-13-13-13-13--|
|-------------------------|--------------------------|
|
|  E  E  E  E  E  E  E  E    E  E  E  E  E  E  E  E
|-------------------------|--------------------------|
|-------------------------|--------------------------|
|--7--7--7--7--7--7--7--7-|-10-10-10-10-10s12-12-12--|
|--x--x--x--x--x--x--x--x-|--x--x--x--x--x--x--x--x--|
|--5--5--5--5--5--5--5--5-|--8--8--8--8--8s10-10-10--|
|-------------------------|--------------------------|


Out-Chorus
 N.C.
  E  E  E  E  E  E  E  E    E  E  E  E  E  E  Q
|-------------------------|------------------------|
|-------------------------|------------------------|
|-12-12-12-12-12-12-12-12-|-12-12-12-12-12s14-14\--|
|--x--x--x--x--x--x--x--x-|--x--x--x--x--x--x--x---|
|-10-10-10-10-10-10-10-10-|-10-10-10-10-10s12-12\--|
|-------------------------|------------------------|
|
|  TP                        TP
|  W                         W
|-------------------------|------------------------|
|-------------------------|------------------------|
|-15----------------------|-15---------------------|
|--x----------------------|--x---------------------|
|-13----------------------|-13---------------------|
|-------------------------|------------------------|


  E E E E +E  E  E  E    E Q  E E  E  Q
|----------------------|-------------------|
|----------------------|-------------------|
|--7-7-7-5-(5)-5-10-10-|-10-7--7-7-10-10---|
|--x-x-x-x-(x)-x--x--x-|--x-x--x-x--x--x---|
|--5-5-5-3-(3)-3--8--8-|--8-5--5-5--8--8---|
|----------------------|-------------------|
|
|  TP                     TP
|  W                      W
|----------------------|-------------------|
|----------------------|-------------------|
|-15-------------------|-14----------------|
|--x-------------------|--x----------------|
|-13-------------------|-12----------------|
|----------------------|-------------------|


 D5
  E  E  E  E   E  E  E  E    E  E   E  E  E  E  E  E
|--------------------------|--------------------------|
|--------------------------|--------------------------|
|-11-11-11-11--11-11-11-11-|-11-11--11-11-11-11-11-11-|
|--x--x--x--x---x--x--x--x-|--x--x---x--x--x--x--x--x-|
|--9--9--9--9---9--9--9--9-|--9--9---9--9--9--9--9--9-|
|--------------------------|--------------------------|
|
|  E  E  E  Q      E  E  E    E  Q      E  E  E  E  E
|--------------------------|--------------------------|
|--------------------------|--------------------------|
|--------------------------|--------------------------|
|--0--0--0-/7\-----0--0--0-|--0-/7\-----0--0--0--0--0-|
|--0--0--0--x------0--0--0-|--0--x------0--0--0--0--0-|
|--0--0--0-/7\-----0--0--0-|--0-/7\-----0--0--0--0--0-|


 C5               D5
  E   E  E  Q   E  E  E     E  Q   E  E  E  Q
|------------------------|------------------------|
|------------------------|------------------------|
|-12--12-12\----12-12-12-|--12\----12-12-14-14\---|
|--x---x--x--1---x--x--x-|---x--1---x--x--x--x----|
|-10--10-10\-1--10-10-10-|--10\-1--10-10-12-12\---|
|------------1-----------|------1-----------------|
|
|  TP               TP       TP
|  H.               Q       +W
|------------------------|------------------------|
|------------------------|------------------------|
|------------------------|------------------------|
|-10---------------12----|-(12)-------------------|
|-10---------------12----|-(12)-------------------|
|-10---------------12----|-(12)-------------------|


 N.C.
  E  E  E  E  E  E  E  E    E  E  E  E  E  E  Q      Q.    Q.    Q     +W
|-------------------------|------------------------|-----------------|---------|
|-------------------------|------------------------|-----------------|---------|
|-12-12-12-12-12-12-12-12-|-12-12-12-12-12s14-14\--|-11----11----11--|-(11)----|
|--x--x--x--x--x--x--x--x-|--x--x--x--x--x--x--x---|--x-----x-----x--|--(x)----|
|-10-10-10-10-10-10-10-10-|-10-10-10-10-10s12-12\--|--9-----9-----9--|--(9)----|
|-------------------------|------------------------|-----------------|---------|
|
|  E  E  E  E  E  E  E  E    E  E  E  E  E  E  Q      Q.    Q.    Q     +W
|-------------------------|------------------------|-----------------|---------|
|-------------------------|------------------------|-----------------|---------|
|-17-17-17-17-17-17-17-17-|-17-17-17-17-17s19-19\--|-15----15----14--|-(14)----|
|--x--x--x--x--x--x--x--x-|--x--x--x--x--x--x--x---|--x-----x-----x--|--(x)----|
|-15-15-15-15-15-15-15-15-|-15-15-15-15-15s17-17\--|-13----13----12--|-(12)----|
|-------------------------|------------------------|-----------------|---------|


 G5
  >
  W           +W            +W            +W
|-----------|-------------|-------------|---------*|
|-----------|-------------|-------------|---------*|
|-----------|-------------|-------------|---------*|
|--5--------|--(5)--------|--(5)--------|--(5)----*|
|--5--------|--(5)--------|--(5)--------|--(5)----*|
|--5--------|--(5)--------|--(5)--------|--(5)----*|
|
|  >
|  W           +W            +W            +W
|-----------|-------------|-------------|---------*|
|-----------|-------------|-------------|---------*|
|-15--------|-(15)--------|-(15)--------|-(15)----*|
|--x--------|--(x)--------|--(x)--------|--(x)----*|
|-13--------|-(13)--------|-(13)--------|-(13)----*|
|-----------|-------------|-------------|---------*|





Comments


Popular Circa Survive tabs & chords
Every Way 2 Chords
I Felt Free 3 Chords
Sharp Practice Chords
Spirit Of The Stairwell 1 Chords
Frozen Creek 2 Tabs
In Fear And Faith Intro 1 Tabs
In The Morning And Amazing Intro Tabs
Imaginary Enemy Ukulele
Long Time Coming Ukulele
Suitcase Ukulele


Song lyrics



↑ Back to top | Tablatures and chords are parodies/interpretations of the original songs. You may use it for private study, scholarship, research or language learning purposes only
© 2014 AZChords.com Contact us | Privacy policy | DMCA | Add/correct tabs | Request tabs | Top 50 tabs