» » »

Chicosci, Chicosci Vampire Social Club Tabs (ver.3)

Artists:  A B C D E F G H I J K L M N O P Q R S T U V W X Y Z # 

Chicosci Vampire Social Club Tabs (ver.3)

Chicosci Tabs
 Rating:
3.8/5 (5 votes)
Chicosci Vampire Social Club lessons Tabs too difficult? Try these video lessons and learn fast
                chicosci vampire social club

chicosci


tuning: drop d

. (palm mute)

* (harmonics)

intro:(drums)

part 1

|----------------------------------------------------|
|----------------------------------------------------|
|--5-5-5-5-5-5-5-5--9-9-9-9-9-9--10-10-10--12-12-12--|  x 4
|----------------------------------------------------|
|--3-3-3-3-3-3-3-3--7-7-7-7-7-7--8--8--8---10-10-10--|
|----------------------------------------------------|

   i have plan if you're willing....

part 2

|-------------------------------------------------------------|
|-------------------------------------------------------------|
|-------------------------------------------------------------|
|--3-3-3-3-3-3-3-3--5-5-5-5-5-5-5-5--10-10-10-10-14-14-10-10--|
|--3-3-3-3-3-3-3-3--5-5-5-5-5-5-5-5--10-10--------------------|
|--3-3-3-3-3-3-3-3--5-5-5-5-5-5-5-5--10-10--------------------|
                                      .  .  .  .  .  .  .  .

   this sacred wine it's our toast to all our crimes......

|---------------------------------------------------------|
|---------------------------------------------------------|
|-----------------------------------------12--------------|
|--9-9-10-10-14-14-10-10--7-7-10-10-14-14----14-14-12-12--|
|--9-9--------------------7-7-----------------------------|
|--9-9--------------------7-7-----------------------------|
   . .  .  .  .  .  .  .  . .  .  .  .  .  .  .  .  .  .

----------------------|
----------------------|
----------------------|
--3-3-3-3--5-5-5-5----|
--3-3-3-3--5-5-5-5----|
--3-3-3-3--5-5-5-5----|


part 1

|----------------------------------------------------|
|----------------------------------------------------|
|--5-5-5-5-5-5-5-5--9-9-9-9-9-9--10-10-10--12-12-12--|  x 2
|----------------------------------------------------|
|--3-3-3-3-3-3-3-3--7-7-7-7-7-7--8--8--8---10-10-10--|
|----------------------------------------------------|

   let's go!...

(repeat part 1) x 4

(repeat part 2)

part 3

|----------------------------------------------------|
|----------------------------------------------------|
|--5-5-5-5-5-5-5-5--9-9-9-9-9-9--10-10-10--12-12-12--|  x 4
|----------------------------------------------------|
|--3-3-3-3-3-3-3-3--7-7-7-7-7-7--8--8--8---10-10-10--|
|----------------------------------------------------|

   i'll raise my glass to you....

    (keyboard part..)

|-----------19-------19-------19--------|
|--13-15-13----15-13----15-13----15-13--|
|---------------------------------------|  x 16
|---------------------------------------|
|---------------------------------------|
|---------------------------------------|

part 4
|----------------------------------------------------------------|
|----------------------------------------------------------------|
|----------------------------------------------------------------|
|--3-3-3-3-3-3-3-3--5-5-5-5-5-5-5-5--10-10-10-10-9-9-9-9-7-7-7-7-|
|--3-3-3-3-3-3-3-3--5-5-5-5-5-5-5-5--10-10-10-10-9-9-9-9-7-7-7-7-|
|--3-3-3-3-3-3-3-3--5-5-5-5-5-5-5-5--10-10-10-10-9-9-9-9-7-7-7-7-|

   silence them forever.....

|----------------------------------------------|
|----------------------------------------------|
|----------------------------------------------|
|--3-3-3-3-3-3-3-3--5-5-5-5-5-5-5-5----10------|
|--3-3-3-3-3-3-3-3--5-5-5-5-5-5-5-5----10------|
|--3-3-3-3-3-3-3-3--5-5-5-5-5-5-5-5----10------|
   . . . . . . . .  . . . . . . . .

  it's all for the taking....          i have plan if you're    willing....

|-------------------------------------5*-|
|-------------------------------------5*-|
|-------------------------------------5*-|
|----------------------------------------|
|----------------------------------------|
|----------------------------------------|

 We'll take on all the ends of the world...

(repeat part 2)

(repeat part 1 until end)

------------------end-------------------


  angel below band

  thea abelardo-lead vocals

  aj abelardo-guitars

  chuckie salvacion-bass guitars

  jf rodil-drums


  ...thank you!


  let's support punk music!
            
Submit corrections

comments powered by Disqus
↑ Back to top | Chicosci Tabs for Chicosci Vampire Social Club. Lyrics for acoustic guitar and electric guitar. Tablatures and chords are parodies/interpretations of the original songs. You may use it for private study, scholarship, research or language learning purposes only