» » »

Chicosci Vampire Social Club Bass tabs (ver.1)

Artists:  A B C D E F G H I J K L M N O P Q R S T U V W X Y Z # 

Chicosci Vampire Social Club Bass tabs (ver.1)

Chicosci
Rating:
4/5 (2 votes)

Tabs too difficult? Try these video lessons and learn fast.
                -------------------------------------------------------------------------------
-------------------------------------------------------------------------------


Tuning: Standard

Riff 1:
G|-------------------------------------|
D|-------------------------------------|
A|-3-3-3-3-----------------------------|
E|------------0-0-0-0--1-1-1-1s3-3-3-3-|

Riff 2:
G|---------------------------------|
D|---------------------------------|
A|-----------333-222-000-----------|
E|-1~---3~----------------1~---3~--|

Riff 3:
G|-------------------------------------|
D|-------------------------------------|
A|-3-3-3-3-0---------------------------|
E|------------0-0-0-0--1-1-1-1s3-3-3-3-|

Riff 4:
G|-----|
D|-----|
A|-3~--|
E|-----|

Verse 1: Riff 1 4x
Refrain: Riff 2
Verse 2: Riff 1 2x
         Riff 3
         Riff 1 3x
Refrain: Riff 2
Adlib:   Riff 1 4x
Bridge:  Riff 2
	 Riff 4
Outro:   Riff 1 2x
	 Riff 3
	 Riff 1 fade 
===============================================================================
            
Tabs too difficult? Try these video lessons and learn fast.


comments powered by Disqus
↑ Back to top | Tablatures and chords are parodies/interpretations of the original songs. You may use it for private study, scholarship, research or language learning purposes only