» » »

Chicosci Vampire Social Club Bass tabs (ver.3)

Artists:  A B C D E F G H I J K L M N O P Q R S T U V W X Y Z # 

Chicosci Vampire Social Club Bass tabs (ver.3)

Chicosci
Rating:
0/5 (0 votes)

Tabs too difficult? Try these video lessons and learn fast.
                --------------------------------------------------------------------------------
               Chicosci vampire social club - Chicosci
-------------------------------------------------------------------------------


Tuning: Drop d

1st Verse:

G|----------------------------------------------------------------------|
D|----------------------------------------------------------------------| x5
A|---33333333-----------------------------------------------------------|
E|------------0000-1111-3333--------------------------------------------|

Chorus:

G|------------------------------------------------------------------------------------|
D|------------------------------------------------------------------------------------|
A|-------------------3333-2222-00000000-----------------------------------------------|
E|-11111111-33333333--------------------1------2--------------------------------------|

2nd verse:


G|----------------------------------------------------------------------|
D|----------------------------------------------------------------------| x5
A|---33333333-----------------------------------------------------------|
E|------------0000-1111-3333--------------------------------------------|

Chorus:

G|---------------------------------------------------------------------------|
D|---------------------------------------------------------------------------|
A|-------------------3333-2222-00000000--------------------------------------|
E|-11111111-33333333--------------------1------2-----------------------------|

-
Chorus:

G|---------------------------------------------------------------------------|
D|---------------------------------------------------------------------------|
A|-------------------3333-2222-00000000--------------------------------------|
E|-11111111-33333333--------------------1------2-----------------------------|

Bridge:

G|-----------------------------------------------------------------------|
D|-----------------------------------------------------------------------|
A|-33333333--------------------------------------------------------------| x6
E|----------0000-1111----------------------------------------------------|

G|---------------------------------------------------------------------------|
D|---------------------------------------------------------------------------|
A|------------------3333-2222-0000-------------------------------------------|
E|11111111-33333333----------------1-3---------------------------------------|


mabuhay mga pinoy!!!
            
Tabs too difficult? Try these video lessons and learn fast.


comments powered by Disqus
↑ Back to top | Tablatures and chords are parodies/interpretations of the original songs. You may use it for private study, scholarship, research or language learning purposes only