>
 >
Chicosci Vampire Social Club 1

Chicosci Vampire Social Club 1 Guitar Tabs

Chicosci - Chicosci Vampire Social Club 1 chords, tabs, tablatures, lyrics

Guitar lessons | Add/correct | Request | Top 50 tabs Artists:  A B C D E F G H I J K L M N O P Q R S T U V W X Y Z 0-9

Chicosci Vampire Social Club 1 Guitar Tabs – Chicosci

CD, Sheet music, Poster

Do you like Chicosci Vampire Social Club 1? Share with your friends now
Bass TabsBass Tabs v2Bass Tabs v3ChordsChords v2Chords v3TabsTabs v2Tabs v3UkuleleUkulele v2
Band:Chicosci
              09278635570(txtmate nman jan?)

Gtr.Legends:
x - DEAD STRING
. - PALM MUTINNG
~ - LET IT RING
/ - SLIDE

Gtr.Tuning:Drop D

Verse:
Gtr.1:
e|------------------------|
B|-13-13-13-13-13-13-13-13|
G|-12-12-12-12-12-12-12-12| tuloy tuloy lang yun gtr. 1
D|-10-10-10-10-10-10-10-10|
A|-10-10-10-10-10-10-10-10|
D|-10-10-10-10-10-10-10-10|

Gtr.2:
e|-------------------------------------------|
B|-------------------------------------------|
G|-55-55-55-55-55-99-99-1010-1010/121212-----| 3x  yung pang 4th time,
D|-xx-xx-xx-xx-xx-xx-xx--x-x--x-x--x-x-x-----| tuloy tuloy na yun,
A|-33-33-33-33-33-77-77--8-8--8-8/101010-----| wala mga break
D|-------------------------------------------|

Chorus:
Gtr.1:
e|-----------------------------------------------------------|
B|-----------------------------------------------------------|
G|-----------------------------------------------------------|
D|-3~--5~--1010101010101010-99999999-7777777777777777-3~--5~-|
A|-3~--5~--1010101010101010-99999999-7777777777777777-3~--5~-|
D|-3~--5~--1010101010101010-99999999-7777777777777777-3~--5~-|
            . . . . . . . . ........ ................
Gtr.2:
e|-----------------------------------------------------------------------|
B|---6~---8~----------------------------------------------8888---6~-8~---|
G|---5~---7~-----------1212-------------99---------99--99--------5~-7~---|
D|-3~---5~----10101010------1010-991010----99-7777---77--7-----3~---5~---|
A|-3~---5~-----------------------------------------------------3~---5~---|
D|-3~---5~-----------------------------------------------------3~---5~---|
               . . . .           ..           ..     ..  .
Repeat Verse 2x
Repeat Chorus
Bridge:
Gtr.1:
e|--------------------------------------|
B|--------------------------------------|
G|--------------------------------------| 2x sasabay yung gtr.1 sa gtr.2 sa
D|-1010101010101010-22222222-3333-5555--| pag lead pagkatapos ng 2x
A|-1010101010101010-22222222-3333-5555--|
D|-1010101010101010-22222222-3333-5555--|

Gtr.2:
e|---------19-----19-----19--------|
B|---------------------------------|
G|-15-16-15--16-15--16-15--16-15---| di ko masyado makuha yung lead sa
D|---------------------------------| part na ito,
A|---------------------------------| kulit ng effects eh, haha… di ito 100%
D|---------------------------------| sure, siguro 50%?

Chorus 2:yung may mabilis na drums

e|-------------------------------------------------------|
B|-----------------------------------------------------8~|
G|-----------------------------------------------------7~|
D|-3~--5~--10~-9~-7~---333333333333333-555555555555555-5~|
A|-3~--5~--10~-9~-7~---333333333333333-555555555555555-5~|
D|-3~--5~--10~-9~-7~---333333333333333-555555555555555-5~|
                        ..............  ..............
Chorus:
Gtr.1:
e|-----------------------------------------------------------|
B|-----------------------------------------------------------|
G|-----------------------------------------------------------|
D|-3~--5~--1010101010101010-99999999-7777777777777777-3~--5~-|
A|-3~--5~--1010101010101010-99999999-7777777777777777-3~--5~-|
D|-3~--5~--1010101010101010-99999999-7777777777777777-3~--5~-|
            . . . . . . . . ........ ................
Gtr.2:
e|-----------------------------------------------------------------------|
B|---6~---8~----------------------------------------------8888---6~-8~---|
G|---5~---7~-----------1212-------------99---------99--99--------5~-7~---|
D|-3~---5~----10101010------1010-991010----99-7777---77--7-----3~---5~---|
A|-3~---5~-----------------------------------------------------3~---5~---|
D|-3~---5~-----------------------------------------------------3~---5~---|
               . . . .           ..           ..     ..  .

Outro: repeat verse until the song fades.

I dedicte this song to my bandmates, timothy a.k.a. lamesa, jezer, mark, cristopher
tope and Kenneth a.k.a. tsuper… and to my beloved, hehe, sikreto ko na un… I also dedicate
song sa mga kukuha nito, pls rate this tab, hehe, hope you like it… well, siguro, 80% 
lang ito, hehe… any questions? Txt me at 09278635570, name ko june, 15 yrs old… bye, tnx…
:-p





Comments


Popular Chicosci tabs & chords
Pink Hearts Yellow Stars Harlequin Lover Bass Tabs
Vampire Social Club Chords
Glass Is Broken Tabs
Matinee Tabs
Paris Tabs
Paris 4 Tabs
Paris 6 Tabs
When Flight Is Denied 2 Tabs
Manila Teenage Death Squad Ukulele
When Flight Is Denied Ukulele


Song lyrics



↑ Back to top | Tablatures and chords are parodies/interpretations of the original songs. You may use it for private study, scholarship, research or language learning purposes only
© 2014 AZChords.com Contact us | Privacy policy | DMCA | Add/correct tabs | Request tabs | Top 50 tabs