» » »

Chicosci, Chicosci Vampire Social Club Bass tabs (ver.2)

Artists:  A B C D E F G H I J K L M N O P Q R S T U V W X Y Z # 

Chicosci Vampire Social Club Bass tabs (ver.2)

Chicosci Tabs
Rating:
5/5 (1 vote)
Chicosci Vampire Social Club lessons Tabs too difficult? Try these video lessons and learn fast
                G ---|MANYTIMES|--------|-------------|-----------| 
D ---|---------|--------|-------------|-----------| (4x)
A ---|-333333--|--66-66-|----8-8--8-8-|----101010-|
E ---|---------|--------|-------------|-----------|
     
     Ive a plan if you are willing
     Well take on all the ends of the world
     A toast, were celebrating
     No ones around were on our own




G ---|------|---------|-------|----------------|---------|
D ---|------|---------|-------|----------------|---------|
A ---|------|---------|-------|----------------|---------|
E ---|-1~-3~|-8-8-8--8|-777-7-|-666-6-6-6-6-66~|---1~--3~|

This sacred wine
Its a toast to all our crimes
Brothers Im yours




G ---|MANYTIMES|--------|-------------|-----------| 
D ---|---------|--------|-------------|-----------|
A ---|-333333--|--66-66-|----8-8--8-8-|----101010-| (2x)
E ---|---------|--------|-------------|-----------|


G ---|MANYTIMES|--------|-------------|-----------|
D ---|---------|--------|-------------|-----------| (4x)
A ---|-333333--|--66-66-|----8-8--8-8-|----101010-|
E ---|---------|--------|-------------|-----------|

No one could ever shake this
The soul we share
The things we've done
We were only dreaming
We breathe together
Hunt as one




G ---|------|---------|-------|----------------|---------|
D ---|------|---------|-------|----------------|---------|
A ---|------|---------|-------|----------------|---------|
E ---|-1~-3~|-8-8-8--8|-777-7-|-666-6-6-6-6-66~|---1~--3~|


These blessed times
Just always keep them in mind
Brothers Im yours



G ---|MANYTIMES|--------|-------------|-----------| 
D ---|---------|--------|-------------|-----------| Till ..
A ---|-333333--|--66-66-|----8-8--8-8-|----101010-| Your choirs falling ..
E ---|---------|--------|-------------|-----------|


I’ll raise my glass to you
I’ll raise my glass to you

The lost boys are laughing
The past is fading
The lost boys are laughing
Your choirs falling


G ---|------|---|---|---|---------|
D ---|------|---|---|---|---------|
A ---|------|---|---|---|---------|
E ---|-1~-3~|8~|-7~|-6~|---1~--3~-|

Silence them forever,
These falling knives
It’s all for the taking


(PausE)
I’ve a plan if you are willing
We’ll 
take on all the ends of the world
(PausE)


G ---|------|---------|-------|----------------|---------|
D ---|------|---------|-------|----------------|---------|
A ---|------|---------|-------|----------------|---------|
E ---|-1~-3~|-8-8-8--8|-777-7-|-666-6-6-6-6-66~|---1~--3~|


This sacred wine
It’s a toast to all our crimes
Brothers I’m yours



(TilL ThE SonG EndS)
G ---|MANYTIMES|--------|-------------|-----------| 
D ---|---------|--------|-------------|-----------|
A ---|-333333--|--66-66-|----8-8--8-8-|----101010-|
E ---|---------|--------|-------------|-----------|

I’ll raise my glass to you
I’ll raise my glass to you

(Till End)

i have a guitar version ,. ^^,

hope you guys appreciate my first Tab ., hehe ^^,

post some comment ., if there's anything to correct pls feel free to post it at the comment section ^^,
thx
            
Submit corrections

comments powered by Disqus
↑ Back to top | Chicosci Bass for Chicosci Vampire Social Club. Lyrics for acoustic guitar and electric guitar. Tablatures and chords are parodies/interpretations of the original songs. You may use it for private study, scholarship, research or language learning purposes only