» » »

Don't Fake This Tabs (ver.3)

Artists:  A B C D E F G H I J K L M N O P Q R S T U V W X Y Z # 

Don't Fake This Tabs (ver.3)

Chevelle
Rating:
0/5 (0 votes)

Hard to play? Try these video lessons and learn fast.
                
Tuning D A D G B E

PM= Plam mute

Rff#1
E----------------------------------------
B----------------------------------------
G----------------------------------------
D-0----3----7----------------------------
A-0----3----7----------------------------
D-0----3----7----------------------------

Riff #2
E----------------10-----------------------
B-10-10-10-10-10--------------------------
G-----------------------------------------
D-----------------------------------------
A-----------------------------------------
D-----------------------------------------

Riff#3
E------------------------------------------
B------------------------------------------
G------------------------------------------
D-0-0-0------------------------------------
A-0-0-0------------------------------------
D-0-0-0------------------------------------

Riff#4
E-------------------------------------------
B-------------------------------------------
G-------------------------------------------
D-0----3----7----3----0----3----7----5------
A-0----3----7----3----0----3----7----5------
D-0----3----7----3----0----3----7----5------
pm..........................................

Riff#5
E-------------------------------------------
B-------------------------------------------
G-------------------------------------------
D-0-0-0-0----0------------------------------
A-0-0-0-0----0------------------------------
D-0-0-0-0----0------------------------------

Riff#6
E-------------------------------------------
B-------------------------------------------
G-5----9------------------------------------
D-------------------------------------------
A-3----7------------------------------------
D-------------------------------------------

Riff order and play time:
Riff#1 (4x)
Riff#2 (8x)
Riff#3 (8x)
Riff#1 (4x)
Riff#4 (1x)
Riff#5 (4x)
Riff#1 (4x)
Riff#5 (7x)
Riff#6 (1x)
Riff#1 (4x)
Riff#5 (7x)
Riff#6 (1x)
Riff#5 (1x)



Good luck!
I LOVE CHRISTINA =) =)
            
Hard to play? Try these video lessons and learn fast. | Correct




comments powered by Disqus
↑ Back to top | Tablatures and chords are parodies/interpretations of the original songs. You may use it for private study, scholarship, research or language learning purposes only