» » »

Don't Fake This Bass tabs (ver.3)

Artists:  A B C D E F G H I J K L M N O P Q R S T U V W X Y Z # 

Don't Fake This Bass tabs (ver.3)

Chevelle
Rating:
0/5 (0 votes)

Hard to play? Try these video lessons and learn fast.
                Im going to tab this 2 different ways

Tuning: Drop B
Tuning: Drop-C

First: CGCF


Chorus: Listen for exact strums on all
First Played: [0:10]
F|-------------------------|
C|-------------------------|
G|-------------------------|
C|-1-1-111-1-1-4-4-4-8-8-8-|

Pre Verse:
First Played: [0:20]
F|---------|
C|---------|
G|---------|
C|-1-1-11--|

Verse:
First Played: [0:39]
F|---------------------------------------------------|
C|---------------------------------------------------|
G|---------------------------------------------------|
C|-1-1-1-1-1-1--4-4-4-4-4-4--8-8-8-8-8-8--4-4-4-4-4-4|

Bridge 1: Staccato notes
F|---------|
C|---------|
G|---------|
C|-1-1-11--|

Bridge 1: Staccato notes
F|-------------|
C|-------------|
G|-------------|
C|-1-1-11-2211-|




Now the right way how its suppose to be
played, in drop B

Tuning BEAD or BEADG

Chorus:
First Played: [0:10][1:10][2:18-2:37][2:57-3:14]
D|-------------------------|
A|-------------------------|
E|-------------------------|
B|-2-2-222-2-2-5-5-5-9-9-9-|

Pre Verse: [0:20]{1:29-1:48]
D|---------|
A|---------|
E|---------|
B|-2-2-22--|

Verse:
First Played: [0:39][1:49-2:07]
D|---------------------------------------------------|
A|---------------------------------------------------|
E|---------------------------------------------------|
B|-2-2-2-2-2-2--5-5-5-5-5-5--9-9-9-9-9-9--5-5-5-5-5-5|

Bridge 1: Staccato notes[1:00]
D|---------|
A|---------|
E|---------|
B|-2-2-22--|

Bridge 2/Outro: Staccato notes[2:08-2:17][2:38-2:52][3:15-3:38]
D|-------------|
A|-------------|
E|-------------|
B|-2-2-22-3322-|
            
Hard to play? Try these video lessons and learn fast. | Correct




comments powered by Disqus
↑ Back to top | Tablatures and chords are parodies/interpretations of the original songs. You may use it for private study, scholarship, research or language learning purposes only