» » »

Chevelle, Get Some Tabs (ver.1)

Artists:  A B C D E F G H I J K L M N O P Q R S T U V W X Y Z # 

Get Some Tabs (ver.1)

Chevelle Tabs
 Rating:
4/5 (4 votes)
Get Some lessons Tabs too difficult? Try these video lessons and learn fast
                This song comes off of the "This Kind Of Thinking(Could Do Us In) album.
They Use the same Dropped B tuning from the Wonder What's Next disk.
Tuning Low to High ( B F# B E G# C#)

Harmonics in the intro ? I might change this later it still sounds wierd.
C# |------------------------------------------------------------------------|
G# |---------7*------------------7*-----------------------------------------|
E  |----5*------------------5*----------------------------------------------|
B  |------------------------------------------------------------------------|
F# |------------------------------------------------------------------------|
B  |------------------------------------------------------------------------|

Heavy Guitar in intro (listen for the rhythm of the single notes)
C# |------------------------------------------------------------------------|
G# |------------------------------------------------------------------------|
E  |------------------------------------------------------------------------|
B  |------------------------------------------------------------------------|
F# |-5--3--0--------------------3-3-3-3-3-----------------------------------|
B  |-5--3--0--2-2-2-2-2-2-0-2-3-----------0-3-0-0-0-0-0-0-3-0-7-7-7-7-7-----|
  PM |-----|

C# |------------------------------------------------------------------------|
G# |------------------------------------------------------------------------|
E  |------------------------------------------------------------------------|
B  |------------------------------------------------------------------------|
F# |-5--3--0--22-22-2-22-22-2-22-22-2-22-2----5-5-5-5-----------------------|
B  |-5--3--0--22-22-2-22-22-2-22-22-2-22-2-0--5-5-5-5-0---------------------|
  PM |-----|

F# |-22-22-2-22-22-2-22-22-2-22-2----5-5-5-5-----------------------|
B  |-22-22-2-22-22-2-22-22-2-22-2-0--5-5-5-5-0---------------------|

Verse Riff (listen to the rhythm)
B  |2-2-2-2-2-2-2-2-2-2-2-2-2-2-2-2-2-2-2-2-2-2-0-5-5-5-5-0-| X 2

Chorus Riff
C# |------------------------------------------------------------------------|
G# |---------0000---------0000---------0000---------------------------------|
E  |---------4444---------4444---------4444---------------------------------|
B  |------------------------------------------------------------------------|
F# |-2-222-2------2-222-2------2-222-2------22-22---5-5-5-5-----------------|
B  |-2-222-2------2-222-2------2-222-2------22-22---5-5-5-5-----------------|

C# |------------------------------------------------------------------------|
G# |---------0000---------0000---------0000---------------------------------|
E  |---------4444---------4444---------4444---------------------------------|
B  |------------------------------------------------------------------------|
F# |-0-000-0------0-000-0------0-000-0------00-00---4-4-4-4-----------------|
B  |-0-000-0------0-000-0------0-000-0------00-00---4-4-4-4-----------------|

Verse Riff (listen to the rhythm)
B  |2-2-2-2-2-2-2-2-2-2-2-2-2-2-2-2-2-2-2-2-2-2-0-5-5-5-5-0-| X 4

Verse Riff (listen to the rhythm)
B  |2-2-2-2-2-2-2-2-2-2-2-2-2-2-2-2-2-2-2-2-2-2-0-5-5-5-5-0-| X 2
  PM|-----------------------------------------------------|

Chorus Riff
C# |--------------------------------------------------------------------|
G# |---------0000---------0000---------0000-----------------------------|
E  |---------4444---------4444---------4444-----------------------------|
B  |--------------------------------------------------------------------|
F# |-2-222-2------2-222-2------2-222-2------22-2----5-5-5-5-------------|
B  |-2-222-2------2-222-2------2-222-2------22-2----5-5-5-5-------------|

C# |--------------------------------------------------------------------|
G# |---------0000---------0000---------0000-----------------------------|
E  |---------4444---------4444---------4444-----------------------------|
B  |--------------------------------------------------------------------|X 2
F# |-0-000-0------0-000-0------0-000-0------00-0----4-4-4-4-------------|
B  |-0-000-0------0-000-0------0-000-0------00-0----4-4-4-4-------------|

Bridge Guitar 1 
C# |--------------------------------------------------------------------|
G# |--------------------------------------------------------------------|
E  |--------------------------------------------------------------------|
B  |--------------------------------------------------------------------|
F# |-22-2-22-2-22-2-2--22-2-22-2-22-2-2--22-2-22-2-22-2-22-2-22-2-------|
B  |-22-2-22-2-22-2-2--22-2-22-2-22-2-2--22-2-22-2-22-2-22-2-22-2-0-2-3-|
   PM|----------------------------------------------------------|

C# |--------------------------------------------------------------------|
G# |--------------------------------------------------------------------|
E  |--------------------------------------------------------------------|
B  |--------------------------------------------------------------------|X 2
F# |-00-0-00-0-00-0-0--00-0-00-0-00-0-0--00-0-00-0-00-0-00-0-00-0-0-----|
B  |-00-0-00-0-00-0-0--00-0-00-0-00-0-0--00-0-00-0-00-0-00-0-00-0-0-2-3-|
   PM|----------------------------------------------------------|

Guitar 2 plays
C# |---------------------------------------------------------------------|
G# |---------------------------------------------------------------------|
E  |---------------------------------------------------------------------|
B  |-222222222222222222222222222222222222222222222222222222222222--------|
F# |---------------------------------------------------------------------|
B  |--------------------------------------------------------------0-2-3--|

C# |---------------------------------------------------------------------|
G# |---------------------------------------------------------------------|
E  |---------------------------------------------------------------------|
B  |-000000000000000000000000000000000000000000000000000000000000--------|X 2
F# |---------------------------------------------------------------------|
B  |--------------------------------------------------------------0-2-3--|

C# |--------------------------------------------------------------------|
G# |--------------------------------------------------------------------|
E  |--------------------------------------------------------------------|
B  |--------------------------------------------------------------------|
F# |-22-2-22-2-22-2-2--22-2-22-2-22-2-2--22-2-22-2-22-2-22-2-22-2-0-2-3-|
B  |-22-2-22-2-22-2-2--22-2-22-2-22-2-2--22-2-22-2-22-2-22-2-22-2-0-2-3-|

C# |--------------------------------------------------------------------|
G# |--------------------------------------------------------------------|
E  |--------------------------------------------------------------------|
B  |--------------------------------------------------------------------|
F# |-00-0-00-0-00-0-0--00-0-00-0-00-0-0--00-0-00-0-00-0-00-0-00-0-0-2-3-|
B  |-00-0-00-0-00-0-0--00-0-00-0-00-0-0--00-0-00-0-00-0-00-0-00-0-0-2-3-|

Chorus Riff
C# |------------------------------------------------------------------------|
G# |---------0000---------0000---------0000---------------------------------|
E  |---------4444---------4444---------4444---------------------------------|
B  |------------------------------------------------------------------------|
F# |-2-222-2------2-222-2------2-222-2------22-2----5-5-5-5-----------------|
B  |-2-222-2------2-222-2------2-222-2------22-2----5-5-5-5-----------------|

C# |--------------------------------------------------------------------|
G# |---------0000---------0000---------0000-----------------------------|
E  |---------4444---------4444---------4444-----------------------------|
B  |--------------------------------------------------------------------|X 2
F# |-0-000-0------0-000-0------0-000-0------00-0----4-4-4-4-------------|
B  |-0-000-0------0-000-0------0-000-0------00-0----4-4-4-4-------------|

C# |------------------------------------------------------------------------|
G# |------------------------------------------------------------------------|
E  |------------------------------------------------------------------------|
B  |------------------------------------------------------------------------|
F# |----------------------3-3-3-3-3-----------------------------------------|
B  |----2-2-2-2-2-2-0-2-3-----------0-2-3-0-0-0-0-0-0-2-3-0-7-7-7-7-7-5-3-0-|

C# |------------------------------------------------------------------------|
G# |------------------------------------------------------------------------|
E  |------------------------------------------------------------------------|
B  |---------------------5-5-5-5-5------------------------------------------|
F# |----2-2-2-2-2--------3-3-3-3-3-------0-0-0-0-0-0-2-3-0-7-7-7-7-7-5-3-0--|
B  |----2-2-2-2-2-0-2-3------------0-2-3-0-0-0-0-0-0-2-3-0-7-7-7-7-7-5-3-0--|

C# |------------------------------------------------------------------------|
G# |------------------------------------------------------------------------|
E  |------------------------------------------------------------------------|
B  |------------------------------------------------------------------------|
F# |-5--3--0--22-22-2-------------------------------------------------------|
B  |-5--3--0--22-22-2-------------------------------------------------------|
  PM |-----|
            
Submit corrections

comments powered by Disqus
↑ Back to top | Chevelle Tabs for Get Some. Lyrics for acoustic guitar and electric guitar. Tablatures and chords are parodies/interpretations of the original songs. You may use it for private study, scholarship, research or language learning purposes only