>
 >
Don't Fake This

Don't Fake This Guitar Tabs

Chevelle - Don't Fake This chords, tabs, tablatures, lyrics

Guitar lessons | Add/correct | Request | Top 50 tabs Artists:  A B C D E F G H I J K L M N O P Q R S T U V W X Y Z 0-9

Don't Fake This Guitar Tabs – Chevelle

CD, Sheet music, Poster

Do you like Don't Fake This? Share with your friends now
Bass TabsBass Tabs v2Bass Tabs v3TabsTabs v2Tabs v3

i made this tab 'cause i like a lot this song and the other tab in
this site really sucks ... maybe is not 100% right 'cause i tab 
this song whit an acoustic guitar, but i think the tab is good.

standar tunning eBGDAE



intro

e-/----------------------------------------------------------------
B-/----------------------------------------------------------------
G-/----------------------------------------------------------------
D-/--6-6-6-6-6-6-6-6-6-6-6-6-6-6--9-9-9-9-9-9-9--6-6h7-7-7-7p6----- X2
A-/--4-4-4-4-4-4-4-4-4-4-4-4-4-4--7-7-7-7-7-7-7--x-x-x-x-x-x-x-----
E-/--4-4-4-4-4-4-4-4-4-4-4-4-4-4--7-7-7-7-7-7-7--5-5-5-5-5-5-5-----

 the second time another guitar play this
e-/----------------------------------------------------------------
B-/--9---9---9---9---9---9-----------------------------------------
G-/----9---9---9---9---9---9---------------------------------------
D-/----------------------------------------------------------------
A-/----------------------------------------------------------------
E-/----------------------------------------------------------------

then w/distor

e-/-------------------------------/--------------------------------
B-/-------------------------------/--------------------------------
G-/-------------------------------/--------------------------------
D-/--6----x-x--9-----x-x--7-----6-/-x2-6---------------------------
A-/--4-x7-x-x--7-x2--x-x--5-x3--5-/----4---------------------------
E-/--4----x-x--7-----x-x--5-----5-/----4---------------------------

verse

e-/------------9-----------9------..----and so on------------------
B-/--9-9-9-9-9---9-9-9-9-9---...-----------------------------------
G-/----------------------------------------------------------------
D-/----------------------------------------------------------------
A-/----------------------------------------------------------------
E-/----------------------------------------------------------------


then
(dont let them ring)
/e-/---------------------------------------------------------------
/B-/---------------------------------------------------------------
/G-/---------------------------------------------------------------
/D-/--6--6--...--and so on ----------------------------------------
/A-/--4--4--...----------------------------------------------------
/E-/--4--4--...----------------------------------------------------
/
/another guitar play at the same time this
/(maybe with a whammy and distor)(use tremolo picking)
/e-/---------------------------------------------------------------
/B-/---------------------------------------------------------------
/G-/--13-13-13b-13b-13b.....-and so on-----------------------------
/D-/---------------------------------------------------------------
/A-/---------------------------------------------------------------
/E-/---------------------------------------------------------------


chorus

e-/-------------------------------/--------------------------------
B-/-------------------------------/--------------------------------
G-/-------------------------------/--------------------------------
D-/--6----x-x--9-----x-x--7-----6-/-x4-6---------------------------
A-/--4-x7-x-x--7-x2--x-x--5-x3--5-/----4---------------------------
E-/--4----x-x--7-----x-x--5-----5-/----4---------------------------


verse

 use plam muting for this part
 (for the last part of this palm muting he seems to use a distor more
  heavy and a wha pedal)
e-/----------------------------------------------------------------
B-/----------------------------------------------------------------
G-/----------------------------------------------------------------
D-/---9-9-9-9-9-9-9-9-9--9-9-9-9-9-...-----------------------------
A-/---0h7-7-7-7-7-7-7-7--0h7-7-7-7-...--and so on------------------
E-/---0h7-7-7-7-7-7-7-7--0h7-7-7-7-...-----------------------------

then
w/distor(dont let them ring)
e-/-----------------------/----------------------------------------
B-/-----------------------/----------------------------------------
G-/-----------------------/----------------------------------------
D-/--6-6-6-6--------------/-x4-------------------------------------
A-/--4-4-4-4--7p0--7h9s0--/----------------------------------------
E-/--4-4-4-4--7p0--7h9s0--/----------------------------------------


chorus

e-/-------------------------------/--------------------------------
B-/-------------------------------/--------------------------------
G-/-------------------------------/--------------------------------
D-/--6----x-x--9-----x-x--7-----6-/-x4-6---------------------------
A-/--4-x7-x-x--7-x2--x-x--5-x3--5-/----4---------------------------
E-/--4----x-x--7-----x-x--5-----5-/----4---------------------------

then
w/distor(dont let them ring)   

e-/-----------------------/----------------------------------------
B-/-----------------------/-----use tremolo picking for this chords
G-/-----------------------/-----4-s-8------------------------------
D-/--6-6-6-6--------------/-x7--x---x------------------------------
A-/--4-4-4-4--7p0--7h9s0--/-----2-s-6------------------------------
E-/--4-4-4-4--7p0--7h9s0--/----------------------------------------

chorus

e-/-------------------------------/--------------------------------
B-/-------------------------------/--------------------------------
G-/-------------------------------/--------------------------------
D-/--6----x-x--9-----x-x--7-----6-/-x4-6---------------------------
A-/--4-x7-x-x--7-x2--x-x--5-x3--5-/----4---------------------------
E-/--4----x-x--7-----x-x--5-----5-/----4---------------------------

outro

e-/-----------------------/----------------------------------------
B-/-----------------------/-----use tremolo picking for this chords
G-/-----------------------/-----4-s-8------------------------------
D-/--6-6-6-6--------------/-x7--x---x------------------------------
A-/--4-4-4-4--7p0--7h9s0--/-----2-s-6------------------------------
E-/--4-4-4-4--7p0--7h9s0--/----------------------------------------


e-/----------------------------------------------------------------
B-/----------------------------------------------------------------
G-/----------------------------------------------------------------
D-/--6-6-6-6-------------------------------------------------------
A-/--4-4-4-4-------------------------------------------------------
E-/--4-4-4-4-------------------------------------------------------

there u have ... enjoy
paranoid_co...





Comments


Popular Chevelle tabs & chords
Jars Bass Tabs
Mia Bass Tabs
One Lonely Visitor 2 Chords
Shameful Metaphors Chords
Antisaint Tabs
Fad 1 Tabs
Humanoid Tabs
In Debt To Earth 1 Tabs
Midnight To Midnight Tabs
Well Enough Alone 3 Tabs


Song lyrics



↑ Back to top | Tablatures and chords are parodies/interpretations of the original songs. You may use it for private study, scholarship, research or language learning purposes only
© 2014 AZChords.com Contact us | Privacy policy | DMCA | Add/correct tabs | Request tabs | Top 50 tabs