» » »

Chevelle, Don't Fake This Tabs (ver.2)

Artists:  A B C D E F G H I J K L M N O P Q R S T U V W X Y Z # 

Don't Fake This Tabs (ver.2)

Chevelle Tabs
 Rating:
4/5 (4 votes)
Don't Fake This lessons Tabs too difficult? Try these video lessons and learn fast
1
                -CHEVELLE-----“Don´t Fake this”

	I have seen those tabs out there of this songs but I have to say that the other tabs are so ***ing wrong´cuase they have posted the song like a “hard core style” with the “D” string, but I think that this song has more a “grunge” type so I used a normal tuning……

Intro:
E|-------------------------------------|
B|-------------------------------------|
G|-------------------------------------|
D|-6-6-6-6-6-6---9-9-9-9-/-13-13-13----| X2 (acoustic)
A|-4-4-4-4-4-4---7-7-7-7-/-11-11-11----|
E|-4-4-4-4-4-4---7-7-7-7-/-11-11-11----|


E|-------------------------------------|
B|-------------------------------------|
G|-------------------------------------|
D|-6-6-6-6-6-6---9-9-9-9-/-13-13-13----| X2 (With Distort)
A|-4-4-4-4-4-4---7-7-7-7-/-11-11-11----|
E|-4-4-4-4-4-4---7-7-7-7-/-11-11-11----|

E|---
B|---
G|---  (END WITH THIS)
D|-6-
A|-4-
E|-4-

First verse
E|-4-4---4---4-4-4---4---4--
B|-4---4---4---7---7---7----
G|--------------------------
D|-------------------------- X4 (With acoustic + hall effect)
A|--------------------------
E|--------------------------

Bridge: 
Now here comes a part of the two guitars…
-Guitar 1-
E|-------------------------------------
B|-------------------------------------
G|-------------------------------------
D|-6--6--6--6--6--6--6--6--6--6--6--6--
A|-4--4--4--4--4--4--4--4--4--4--4--4--
E|-4--4--4--4—-4--4--4--4--4--4--4--4--

-Guitar 2-
E|-18-18-18-18-18-18-18-18-18-18-18-18-18-18-18-18-
B|-------------------------------------    (using “vibrato”)
G|-------------------------------------
D|-------------------------------------
A|-------------------------------------
E|-------------------------------------


-CHORD-

E|-------------------------------------|
B|-------------------------------------|
G|-------------------------------------|
D|-6-6-6-6-6-6---9-9-9-9-/-13-13-13----| X4(With Distort)
A|-4-4-4-4-4-4---7-7-7-7-/-11-11-11----|
E|-4-4-4-4-4-4---7-7-7-7-/-11-11-11----|

E|---
B|---
G|---  (END WITH THIS IN ORDER TO REARCH THE SECOND VERSE)
D|-6-
A|-4-
E|-4-

-SECOND VERSE-
P.M:…………………………………………………………………
E|---------------------------|
B|---------------------------|
G|---------------------------|
D|-6-6-6-6-6-6---9-9-9-9-9-9-| X2(With Distort)
A|-4-4-4-4-4-4---7-7-7-7-7-7-|
E|-4-4-4-4-4-4---7-7-7-7-7-7-|

E|-------------------------
B|-------------------------	-Here I use  “light distort”
G|-------------------------  And effect called “top boost”	
D|-6-6-6-6-6-6-9-9-9-9-9-9-13-13-13-13-13-13/9-9-9-9-9-9---
A|-4-4-4-4-4-4-7-7-7-7-7-7-11-11-11-11-11-11/7-7-7-7-7-7---
E|-4-4-4-4-4-4-7-7-7-7-7-7-11-11-11-11-11-11/7-7-7-7-7-7---

-PRE- CHORD- here is the part of:   Don't fake this,…….Don't fake this,
E|-------------------
B|-------------------
G|-------------------
D|-6--6—-6—-6--6----6-  X4 times (try to give a pause on each
A|-4--4--4--4--4----4-            note)
E|-4--4--4--4--4----4-

-CHORD-
E|-------------------------------------|
B|-------------------------------------|
G|-------------------------------------|
D|-6-6-6-6-6-6---9-9-9-9-/-13-13-13----| X4(With Distort)
A|-4-4-4-4-4-4---7-7-7-7-/-11-11-11----|
E|-4-4-4-4-4-4---7-7-7-7-/-11-11-11----|

-PRE- CHORD- (Again)
E|-------------------
B|-------------------
G|-------------------
D|-6--6—-6—-6--6----6-  X7 times (try to give a pause on each
A|-4--4--4--4--4----4-            note)
E|-4--4--4--4--4----4-

-BRIDGE- A little part to get again to the chord.
E|-----------------|
B|-----------------|
G|-----------------|
D|-9v-9v-/13v-13v---
A|------------------
E|------------------


-CHORD-
E|-------------------------------------|
B|-------------------------------------|
G|-------------------------------------|
D|-6-6-6-6-6-6---9-9-9-9-/-13-13-13----| X4(With Distort)
A|-4-4-4-4-4-4---7-7-7-7-/-11-11-11----|
E|-4-4-4-4-4-4---7-7-7-7-/-11-11-11----|

-PRE- CHORD- (Again)
E|-------------------
B|-------------------
G|-------------------
D|-6--6—-6—-6--6----6-  X7 times (try to give a pause on each
A|-4--4--4--4--4----4-            note)
E|-4--4--4--4--4----4-

-BRIDGE- A little part to get again to the chord.
E|-----------------|
B|-----------------|
G|-----------------|
D|-9v-9v-/13v-13v---
A|------------------
E|------------------


-END-
E|-------------
B|-------------
G|-------------
D|-6--6—-6—-6--
A|-4--4--4--4--
E|-4--4--4--4--

-Chevelle---Don´t fake this-
 
Ignoring,
A loss of sight,
Afraid,
To blink,
and might,
Lose the sun.

But don't,
Make this out,
To be more,
Than it is,
I'm behind,
Every lie,
There's a bird song within,
YES YOU'RE MY SIGHT!!!

The suffering,
That's kept within,
Dispose of the men,
Lost,
Inside,
He was negative.

This place,
Once more was underground.

So look,
And connect,
We're refusing to rust, 
Healing has to begin,
In the past.

So don't fake this,
Don't fake this,
Don't fake this,
Don't!

(Ouuoo ouuoo ouuoo)
The suffering,
That's kept within,
Dispose of the men,
Lost,
Don't fake this,
Don't fake this,
Don't fake this,
Don't!!!
FAKE!!!
FAKE!!!

(Ouuoo ouuoo ouuoo)
The suffering,
That's kept within,
Dispose of the men,
Lost,
So don't fake this,
Don't fake this,
Don't fake this,
Don't!!!
FAKE!!!
FAKE!!!

keep on Rocking men!!!!!!
            
Submit corrections

comments powered by Disqus
↑ Back to top | Chevelle Tabs for Don't Fake This. Lyrics for acoustic guitar and electric guitar. 1 Tablatures and chords are parodies/interpretations of the original songs. You may use it for private study, scholarship, research or language learning purposes only