» » »

Comfortable Liar Tabs (ver.3)

Artists:  A B C D E F G H I J K L M N O P Q R S T U V W X Y Z # 

Comfortable Liar Tabs (ver.3)

Chevelle
Rating:
0/5 (0 votes)

Hard to play? Try these video lessons and learn fast.
                The tuning is dropped d down half a step (low to highest: Db ab db gb bb eb)
I'm pretty confident in it, but if you have any questions, suggestions just 

---5--------------5-----------------------------------------------------------
-4-7-4-4-4-0-0--4-7-4-4-0--0--------------------------------------------------
-4-5-4-4-4-0-0--4-5-4-4-0--0--------------------------------------------------
-4---4-4-4-0-0--4---4-4-0--0--------------------------------------------------
                        pm                        Intro and main riff         

------------------|-----------------------------------------------------------
------------------|-----------------------------------------------------------
------------------|-----------------------------------------------------------
-0--4-------------|-0-x-x--4-x-x----------------------------------------------
-0--4-------------|-0-x-x--4-x-x----------------------------------------------
-0--4-------------|-0-x-x--4-x-x----------------------------------------------
 Interlude/Chorus       x8     x8  Pre - Chorus
            
Hard to play? Try these video lessons and learn fast. | Correct




comments powered by Disqus
↑ Back to top | Tablatures and chords are parodies/interpretations of the original songs. You may use it for private study, scholarship, research or language learning purposes only