» » »

Chevelle, Comfortable Liar Tabs (ver.1)

Artists:  A B C D E F G H I J K L M N O P Q R S T U V W X Y Z # 

Comfortable Liar Tabs (ver.1)

Chevelle Tabs
 Rating:
4/5 (4 votes)
Comfortable Liar lessons Tabs too difficult? Try these video lessons and learn fast
                tuned drop d then down a half stepall flats
e-------------------------------------
b-------------------------------------
g-------------------------------------
d--6-6/7---6---7-0-xx-6----7-66-66-0--this verse varies thoughout the song
a--4-4/5-0-4-0-5-0-xx-4-44-5-44-44-0--
d--4-4/5-0-4-0-5-0-xx-4-44-5-44-44-0--

e------------------------------------
b------------------------------------
g------------------------------------
d--0------------------------4--------
a--0------------------------4--------
d--0------------------------4--------

e-----------------------------------------------------------------------------------
b-----------------------------------------------------------------------------------
g-----------------------------------------------------------------------------------
d--0-xx-0-xx-0-xx-0-xx-0-xx-0-xx-0-xx-0-xx-4-xx-4-xx-4-xx-4-xx-4-xx-4-xx-4-xx-4-xx--
a--0-xx-0-xx-0-xx-0-xx-0-xx-0-xx-0-xx-0-xx-4-xx-4-xx-4-xx-4-xx-4-xx-4-xx-4-xx-4-xx--
d--0-xx-0-xx-0-xx-0-xx-0-xx-0-xx-0-xx-0-xx-4-xx-4-xx-4-xx-4-xx-4-xx-4-xx-4-xx-4-xx--
all the parts email for questions...im pretty sure youll get it first try
            
Submit corrections

comments powered by Disqus
↑ Back to top | Chevelle Tabs for Comfortable Liar. Lyrics for acoustic guitar and electric guitar. Tablatures and chords are parodies/interpretations of the original songs. You may use it for private study, scholarship, research or language learning purposes only