» » »

Comfortable Liar Tabs (ver.2)

Artists:  A B C D E F G H I J K L M N O P Q R S T U V W X Y Z # 

Comfortable Liar Tabs (ver.2)

Chevelle
Rating:
0/5 (0 votes)

Hard to play? Try these video lessons and learn fast.
                TUNING: drop D then a 1/2 step down

great beginer song

INTRO
--------------------------------------------------------------
--------------------------------------------------------------
--------------------------------------------------------------
-4-0-4-0-0---4-0-4-0-0-----4-0-4-0-0--4-0-4-0-0-0-------------
-4-0-4-0-0---4-0-4-0-0-----4-0-4-0-0--4-0-4-0-0-0-------------
-4-0-4-0-0---4-0-4-0-0-----4-0-4-0-0--4-0-4-0-0-0-------------
                pm ^                       pm....

--------------------------------------------------------------|
--------------------------------------------------------------|
--------------------------------------------------------------|
-4-0-4-0-0---4-0-4-0-0-----4-0-4-0-0--4-0-4-0-0---------------|
-4-0-4-0-0---4-0-4-0-0-----4-0-4-0-0--4-0-4-0-0--let ring-----|
-4-0-4-0-0---4-0-4-0-0-----4-0-4-0-0--4-0-4-0-0---------------|
                pm ^                     pm ^
VERSE
---------------|        ---------------|
---------------|        ---------------| 
---------------|        ---------------|
--4-0-4-0-0----|X7 then --4-0-4-0-0-0--|X1 
--4-0-4-0-0----|        --4-0-4-0-0-0--|
--4-0-4-0-0----|        --4-0-4-0-0-0--|
			      pm.....
VERSE PART 2
---------------|
---------------|
---------------|
--4-0-4-0-0----|
--4-0-4-0-0----|
--4-0-4-0-0----|

BRIDGE
so heal*..your fear*
---------------------------------|
---------------------------------|
---------------------------------|
-------0-----------4-------------| 
-------0-let ring--4-let ring----|
-------0-----------4-------------|
BRIDGE 2
---------------------------------|
---------------------------------|
---------------------------------|
--4-4-4-4-0-0-0-0-4-4-4-4--------|
--4-4-4-4-0-0-0-0-4-4-4-4--------|
--4-4-4-4-0-0-0-0-4-4-4-4--------|

CHORUS
---------------------------------|         ---------------------|
---------------------------------|         ---------------------|
---------------------------------|         ---------------------|
-------0-----------4-------------| x2 then ----0----------------|
-------0-let ring--4-let ring----|         ----0---let ring-----|
-------0-----------4-------------|         ----0----------------|

END
-----|         -----|
-----|         -----|
-----|         -----|
-0-x-|x33 then --4--|
-0-x-|         --4--|
-0-x-|         --4--|   


-song order-
Intro x1
verse x1
verse part2 x4
bridge x2
verse x1
verse part2 x4
bridge2 x2
chorus x1
verse x1
end x1
            
Hard to play? Try these video lessons and learn fast. | Correct




comments powered by Disqus
↑ Back to top | Tablatures and chords are parodies/interpretations of the original songs. You may use it for private study, scholarship, research or language learning purposes only