» » »

Comfortable Liar Bass tabs (ver.1)

Artists:  A B C D E F G H I J K L M N O P Q R S T U V W X Y Z # 

Comfortable Liar Bass tabs (ver.1)

Chevelle
Rating:
0/5 (0 votes)

Hard to play? Try these video lessons and learn fast.
                Tuning: Drop C#

Intro:
G |----------------------------------------------------------|
D |----------------------------------------------------------|
A |----------------------------------------------------------|
C#|-4-0-4-0--0-00--4-0-4-0--0---4-0-4-0--0-00-4-0-4--0--0--0-|

G |----------------------------------------------------------|
D |----------------------------------------------------------|
A |----------------------------------------------------------|
C#|-4-0-4-0--0-00--4-0-4-0--0---4-0-4-0--0-00-4-0-4--0--0----|

Verse:
G |--------------|-------------|---------------|-------------|
D |--------------|-------------|---------------|-------------|
A |--------------|-------------|---------------|-------------|
C#|-4-0-4-0--0-00|-4-0-4-0-0-0-|-4-0-4-0--0-00-|4-0-4--0-0---|
         7x             1x              3x            1x

First Chorus:
G |---------------------|
D |---------------------|
A |---------------------|
C#|-0----4----0----4----|

-->Verse

Second Chorus: 2x
G |--------------------------------------------------|
D |--------------------------------------------------|
A |--------------------------------------------------|
C#|-000000000000000000000000400400400400400400400400-|

Bridge:
G |--------------------------------------------------------|
D |--------------------------------------------------------|
A |--------------------------------------------------------|
C#|-0---------4---------0-------4--------0-------4-----0---|

G |---------------|-----------|
D |---------------|-----------|
A |---------------|-----------|
C#|-4-0-4-0--0-00-|-4-0-4-0---|

G|---------------------------------------------------------------------------------------------------|
D|---------------------------------------------------------------------------------------------------|
A|---------------------------------------------------------------------------------------------------|
C#|4004004004004004004004004004004004004004004004004004004004004004004004004004004004004004004004000-|
            
Hard to play? Try these video lessons and learn fast. | Correct




comments powered by Disqus
↑ Back to top | Tablatures and chords are parodies/interpretations of the original songs. You may use it for private study, scholarship, research or language learning purposes only