» » »

Chevelle, Antisaint Tabs (ver.1)

Artists:  A B C D E F G H I J K L M N O P Q R S T U V W X Y Z # 

Antisaint Tabs (ver.1)

Chevelle Tabs
Rating:
4/5 (7 votes)
Antisaint lessons Tabs too difficult? Try these video lessons and learn fast
                Tuning: B F# B E G# C# (Drop B)

Intro/Verse
C#-4-4-4-4-4-4-4-4--5-5-5-5-5-5-5-|
G#-7-7-7-7-7-7-7-7--7-7-7-7-7-7-7-|
E---------------------------------| 3x
B---------------------------------|
F#--------------------------------|
B---------------------------------|

C#-4-4-4-4-4-4-4-5---------------|
G#-7-7-7-7-7-7-7-7---------------|
E--------------------------------|
B-------------------7-9-10-9-7-5-|
F#------------------7-9-10-9-7-5-|
B-------------------7-9-10-9-7-5-|

Chorus
C#--------------------------------------------------------------|
G#--------------------------------------------------------------|
E---------------------------------------------------------------|
B--4-4--10-9-0-4-4--10-9-0-4-4-4--4-4--10-9-0-4-4--10-9-0-7-7-7-|
F#-4-4--10-9-0-4-4--10-9-0-4-4-4--4-4--10-9-0-4-4--10-9-0-7-7-7-|
B--4-4--10-9-0-4-4--10-9-0-4-4-4--4-4--10-9-0-4-4--10-9-0-7-7-7-|

Pre-Verse
C#----------------------|
G#----------------------|
E-----------------------|
B-----------------------|
F#---------12-10--------|
B--12-10-0-------0-10-9-|

Bridge
C#---------------------------------------------|
G#---------------------------------------------|
E----------------------------------------------|
B--4-4-4--4-4-4--4-4-4-0-4-4-4--4-4-4--4-4-4-0-|
F#-4-4-4--4-4-4--4-4-4-0-4-4-4--4-4-4--4-4-4-0-|
B--4-4-4--4-4-4--4-4-4-0-4-4-4--4-4-4--4-4-4-0-|

C#---------------------------------------------|
G#---------------------------------------------|
E----------------------------------------------|
B--0-0-0--0-0-0--0-0-0-0-0-0-0--0-0-0--0-0-0-0-|
F#-5-5-5--4-4-4--5-5-5-0-4-4-4--5-5-5--5-5-5-5-|
B--0-0-0--0-0-0--0-0-0-0-0-0-0--0-0-0--0-0-0-0-|
            

comments powered by Disqus
↑ Back to top | Chevelle Tabs for Antisaint. Lyrics for acoustic guitar and electric guitar. Tablatures and chords are parodies/interpretations of the original songs. You may use it for private study, scholarship, research or language learning purposes only