» » »

Antisaint Tabs (ver.2)

Artists:  A B C D E F G H I J K L M N O P Q R S T U V W X Y Z # 

Antisaint Tabs (ver.2)

Chevelle
Rating:
5/5 (12 votes)

Hard to play? Try these video lessons and learn fast.
                TUNING: Drop-D (D A D G B E)

NOTES: This is the opening track of Chevelle's upcoming release on 4/3/07. This song is
featured on the game MLB 07: The Show. I am aware that
the song is not offically played in Drop-D tuning by Pete Loeffler, but
it can effectively be played in such tuning with just a slight
improvisation during the bridge. I also left out the 20 seconds or so of pickscr*pes at
end. Not the easiest thing to tab. The first section of each verse is only played on
so there is nothing to tab for guitar there. I also added in lyrics here and there to 
with timing. Please pay attention to where the "^" is located as that denotes exactly
the lyrics start in sync with the tab. I think that takes care of everything, if you 
any questions or comments feel free to e-mail me. Enjoy!
________________________________________________________________________

[INTRO-A]:
E|---------------------------------------------------------------------|
B|-6666666-7777777-6666666-7777777-6666666-7777777-6666667-------------|
G|-8888888-8888888-8888888-8888888-8888888-8888888-8888888-------------|
d|---------------------------------------------------------4/6/7\6\4\2-|
A|---------------------------------------------------------4/6/7\6\4\2-|
D|---------------------------------------------------------4/6/7\6\4\2-|

[INTRO-B](x2):
E|----------------------------------------------------|
B|----------------------------------------------------|
G|----------------------------------------------------|
d|-1-1-7-6-4-1--7-6-4-1-1-1--1-1-7-6-4-1--7-6\x/4-4-4-|
A|-1-1-7-6-4-1--7-6-4-1-1-1--1-1-7-6-4-1--7-6\x/4-4-4-|
D|-1-1-7-6-4-1--7-6-4-1-1-1--1-1-7-6-4-1--7-6\x/4-4-4-|

[INTRO-C](x4):
E|------------------------|
B|------------------------|
G|------------------------|
d|-------7----------------|
A|---------7--------------|
D|-9-7-4-----4-7-6====666-|

[VERSE-A]:
(bass only for 4 measures)

[VERSE-B/PRECHORUS]:
E|---------------------------------------------------------------------|
B|-6666666-7777777-6666666-7777777-6666666-7777777-6666667-------------|
G|-8888888-8888888-8888888-8888888-8888888-8888888-8888888-------------|
d|---------------------------------------------------------4/6/7\6\4\2-|
A|---------------------------------------------------------4/6/7\6\4\2-|
D|---------------------------------------------------------4/6/7\6\4\2-|
   ^ “he's starting to follow crows”

[CHORUS](x2):
E|----------------------------------------------------|
B|----------------------------------------------------|
G|----------------------------------------------------|
d|-1-1-7-6-4-1--7-6-4-1-1-1--1-1-7-6-4-1--7-6\x/4-4-4-|
A|-1-1-7-6-4-1--7-6-4-1-1-1--1-1-7-6-4-1--7-6\x/4-4-4-|
D|-1-1-7-6-4-1--7-6-4-1-1-1--1-1-7-6-4-1--7-6\x/4-4-4-|
   ^ “you poor little antisant”

[POST-CHORUS](x2):
E|------------------------|
B|------------------------|
G|------------------------|
d|-------7----------------|
A|---------7--------------|
D|-9-7-4-----4-7-6====666-|

[VERSE-A]:
(bass only for 4 measures)

[VERSE-B/PRECHORUS]:
E|---------------------------------------------------------------------|
B|-6666666-7777777-6666666-7777777-6666666-7777777-6666667-------------|
G|-8888888-8888888-8888888-8888888-8888888-8888888-8888888-------------|
d|---------------------------------------------------------4/6/7\6\4\2-|
A|---------------------------------------------------------4/6/7\6\4\2-|
D|---------------------------------------------------------4/6/7\6\4\2-|
   ^ “assurance is what we need”

[CHORUS](x4):
E|----------------------------------------------------|
B|----------------------------------------------------|
G|----------------------------------------------------|
d|-1-1-7-6-4-1--7-6-4-1-1-1--1-1-7-6-4-1--7-6\x/4-4-4-|
A|-1-1-7-6-4-1--7-6-4-1-1-1--1-1-7-6-4-1--7-6\x/4-4-4-|
D|-1-1-7-6-4-1--7-6-4-1-1-1--1-1-7-6-4-1--7-6\x/4-4-4-|
   ^ "you poor little antisaint"

[BRIDGE]:
E|--------------------------------------------------------------------------|
B|--------------------------------------------------------------------------|
G|--------------------------------------------------------------------------|
d|--------------------------------------------------------------------------|
A|-111-111-1111111-111-1111999-999-9999999-999-9999111-111-1111111-111-1111-|
D|-111-111-1111111-111-1111999-999-9999999-999-9999111-111-1111111-111-1111-|
   “the stakes are too low” ^

-------------------------------------------------------------------------|
-------------------------------------------------------------------------|
-------------------------------------------------------------------------|
-------------------------------------------------------------------------|
-999-999-9999999-999-9999111-111-1111111-111-1111999-999-999-999999999999|
-999-999-9999999-999-9999111-111-1111111-111-1111999-999-999-999999999999|
                                              "lyin' by you" ^

[PRECHORUS]:
E|---------------------------------------------------------------------|
B|-6666666-7777777-6666666-7777777-6666666-7777777-6666667-------------|
G|-8888888-8888888-8888888-8888888-8888888-8888888-8888888-------------|
d|---------------------------------------------------------4/6/7\6\4\2-|
A|---------------------------------------------------------4/6/7\6\4\2-|
D|---------------------------------------------------------4/6/7\6\4\2-|

[CHORUS](x4):
E|----------------------------------------------------|
B|----------------------------------------------------|
G|----------------------------------------------------|
d|-1-1-7-6-4-1--7-6-4-1-1-1--1-1-7-6-4-1--7-6\x/4-4-4-|
A|-1-1-7-6-4-1--7-6-4-1-1-1--1-1-7-6-4-1--7-6\x/4-4-4-|
D|-1-1-7-6-4-1--7-6-4-1-1-1--1-1-7-6-4-1--7-6\x/4-4-4-|
   ^ "you poor little antisaint"

E|------------|
B|------------|
G|------------|
d|...4========|
A|...4========|
D|...4========|
     (at the end of the 4th repeat of the last chorus, end on this)

___________________________________________________________________
[SYMBOLS]:
/ : slide up
\ : slide down
x : palm mute
= : hold note
^ : denotes exact place where lyrics are sync'd with tab
... : continued from last riff
            
Hard to play? Try these video lessons and learn fast. | Correct




comments powered by Disqus
↑ Back to top | Tablatures and chords are parodies/interpretations of the original songs. You may use it for private study, scholarship, research or language learning purposes only