» » »

Antisaint Bass tabs (ver.2)

Artists:  A B C D E F G H I J K L M N O P Q R S T U V W X Y Z # 

Antisaint Bass tabs (ver.2)

Chevelle
Rating:
5/5 (6 votes)

Hard to play? Try these video lessons and learn fast.
                Tuning: Drop D

|==========================================================================|

Intro:
G|---------------------------------------------------------------------|
D|---------------------------------------------------------------------|
A|-6666666-6666666-6666666-6666666-6666666-6666666-6666666-------------|
D|---------------------------------------------------------4/6/7\6\4\2-|

G|----------------------------------------------------|
D|----------------------------------------------------|
A|----------------------------------------------------|
D|-1-1-7-6-4-1--7-6-4-1-1-1--1-1-7-6-4-1--7-6\x/4-4-4-|

G|------------------------|
D|-------7----------------|
A|---------7--------------|
D|-9-7-4-----4-7-6----666-|

Verse:
G|---------------------------------------------------------------------|
D|---------------------------------------------------------------------|
A|-6666666-6666666-6666666-6666666-6666666-6666666-6666666-------------|
D|---------------------------------------------------------4/6/7\6\4\2-|

Chorus:
G|----------------------------------------------------|
D|----------------------------------------------------|
A|----------------------------------------------------|
D|-1-1-7-6-4-1--7-6-4-1-1-1--1-1-7-6-4-1--7-6\x/4-4-4-|

Post-Chorus:
G|------------------------|
D|-------7----------------|
A|---------7--------------|
D|-9-7-4-----4-7-6----666-|

-->Verse
-->Chorus

Bridge:
G|-------------------------------------------------------------------------|
D|-------------------------------------------------------------------------|
A|-------------------------------------------------------------------------|
D|-111-111-1111111-111-1111999-999-9999999-999-9999111-111-1111111-111-1111|

G|-------------------------------------------------------------------------|
D|-------------------------------------------------------------------------|
A|-------------------------------------------------------------------------|
D|999-999-9999999-999-9999111-111-1111111-111-1111999-999-999-999999999999-|

-->Intro/Verse
-->Chorus

Outro:
G|-------------|
D|-------------|
A|-------------|
D|-4-----------|

|==========================================================================|

That's it, listen to find the timing and how many times you repeat the riffs.
            
Hard to play? Try these video lessons and learn fast. | Correct




comments powered by Disqus
↑ Back to top | Tablatures and chords are parodies/interpretations of the original songs. You may use it for private study, scholarship, research or language learning purposes only