>
 >
Antisaint 2

Antisaint 2 Guitar Tabs

Chevelle - Antisaint 2 chords, tabs, tablatures, lyrics

Guitar lessons | Add/correct | Request | Top 50 tabs Artists:  A B C D E F G H I J K L M N O P Q R S T U V W X Y Z 0-9

Antisaint 2 Guitar Tabs – Chevelle

CD, Sheet music, Poster

Do you like Antisaint 2? Share with your friends now
Bass TabsBass Tabs v2TabsTabs v2Tabs v3
-------------------------------------------------------------------------------
                             Antisaint - Chevelle
-------------------------------------------------------------------------------

Tuning:Drop D
yeah the other tabs I looked at for this song are in funky tunings. this a much easier 
of playing this song. So if changing the tuning ticks you off. this is the better way to go.

Guitar 1 Intro (G1 has a kind of phaser sound)
E|----(x8)-----(x8)----|  |--------|
B|-66666666-x-77777777-|  |-7.-7.--|
G|-88888888-x-88888888-|  |-8.-8.--|
d|---------------------|X4|--------|
A|---------------------|  |--------|
D|---------------------|  |--------|

Guitar 2 (comes in on the staccato notes of G1)
E|--------------|
B|--------------|
G|--------------|
d|--------------|
A|--4-6-7-6-4-2-|
D|--4-6-7-6-4-2-|

Chorus (Both Guitars)
E|---------------------------------------------------------|
B|---------------------------------------------------------|
G|---------------------------------------------------------|
d|-1-1--7-6-4-1-1--7-6-4-1-1-1--1-1--7-6-4-1-1--7-6-1-4=---|X2
A|-1-1--7-6-4-1-1--7-6-4-1-1-1--1-1--7-6-4-1-1--7-6-1-4=---|
D|-1-1--7-6-4-1-1--7-6-4-1-1-1--1-1--7-6-4-1-1--7-6-1-4=---|


Prechorus- Guitar2
E|------------------------|----------------------|
B|------------------------|----------------------|
G|--------------------(x4)|----------------------|
d|--------4-2-------------|--------4-2-----------|
A|--2-0-------------------|--2-0-----------------|
D|------4-----4/7-6=6=----|-------4----4/7-6=6\--|

Segment of Bass, Drums, and Vocals

(...he's starting to follow crows...)
Guitar 1 (G1 has a kind of phaser sound)
E|----(x8)-----(x8)----|  |-------------------|
B|-66666666-x-77777777-|  |-66666666-x-7.-7.--|
G|-88888888-x-88888888-|  |-88888888-x-8.-7.--|
d|---------------------|X3|-------------------|
A|---------------------|  |-------------------|
D|---------------------|  |-------------------|

(...he's starting to follow crows...)
Guitar 2 (this pattern is what the bass had before)
E|----------------------------------|  |-------------------------------|
B|----------------------------------|  |-------------------------------|
G|----------------------------------|  |-------------------------------|
d|--------4-2-----------------------|  |-------4-2---------------------|
A|--2-0---------------7-6-------6-7-|X3|-2-0--------------4-6-7-6-4-2--|
D|------4-----4-7-6-4-----4-6-7-----|  |-----4-----4-7-6--4-6-7-6-4-2--|

Chorus (Both Guitars)
E|---------------------------------------------------------|
B|---------------------------------------------------------|
G|---------------------------------------------------------|
d|-1-1--7-6-4-1-1--7-6-4-1-1-1--1-1--7-6-4-1-1--7-6-1-4=---|
A|-1-1--7-6-4-1-1--7-6-4-1-1-1--1-1--7-6-4-1-1--7-6-1-4=---|X2
D|-1-1--7-6-4-1-1--7-6-4-1-1-1--1-1--7-6-4-1-1--7-6-1-4=---|

Prechorus- Guitar2
E|------------------------|----------------------|
B|------------------------|----------------------|
G|--------------------(x4)|----------------------|
d|--------4-2-------------|--------4-2-----------|
A|--2-0-------------------|--2-0-----------------|
D|------4-----4/7-6=6=----|-------4----4/7-6=6\--|

Segment of Bass, Drums, and Vocals

(...he's starting to follow crows...)
Guitar 1 (G1 has a kind of phaser sound)
E|----(x8)-----(x8)----|  |-------------------|
B|-66666666-x-77777777-|  |-66666666-x-7.-7.--|
G|-88888888-x-88888888-|  |-88888888-x-8.-7.--|
d|---------------------|X3|-------------------|
A|---------------------|  |-------------------|
D|---------------------|  |-------------------|

(...he's starting to follow crows...)
Guitar 2 (this pattern is what the bass had before)
E|----------------------------------|  |-------------------------------|
B|----------------------------------|  |-------------------------------|
G|----------------------------------|  |-------------------------------|
d|--------4-2-----------------------|  |-------4-2---------------------|
A|--2-0---------------7-6-------6-7-|X3|-2-0--------------4-6-7-6-4-2--|
D|------4-----4-7-6-4-----4-6-7-----|  |-----4-----4-7-6--4-6-7-6-4-2--|

Chorus (Both Guitars)
E|---------------------------------------------------------|
B|---------------------------------------------------------|
G|---------------------------------------------------------|
d|-1-1--7-6-4-1-1--7-6-4-1-1-1--1-1--7-6-4-1-1--7-6-1-4=---|
A|-1-1--7-6-4-1-1--7-6-4-1-1-1--1-1--7-6-4-1-1--7-6-1-4=---|X4
D|-1-1--7-6-4-1-1--7-6-4-1-1-1--1-1--7-6-4-1-1--7-6-1-4=---|

Bridge
Guitar 1
E|------------------------|   |---------------------------------------|
B|------------------------|   |---------------------------------------|
G|------------------------|   |---------------------------------------|
d|-1-1-1.--1-1-1.--1-1-1=-|X11|--1-1-1-1=--1-1-1-1=--1-1-1-1-1====----|
A|-1-1-1.--1-1-1.--1-1-1=-|   |--1-1-1-1=--1-1-1-1=--1-1-1-1-1====----|
D|-1-1-1.--1-1-1.--1-1-1=-|   |--1-1-1-1=--1-1-1-1=--1-1-1-1-1====----|

Guitar 2
E|---------------------------------------------------------------------------------------------|
B|---------------------------------------------------------------------------------------------|
G|-----------------------------------------------4-4-4.--4-4-4.-4-4-4=-4-4-4.--4-4-4.--4-4-6=--|
d|-1-1-1.--1-1-1.--1-1-1=-1-1-1.--1-1-1.--1-1-1=-4-4-4.--4-4-4.-4-4-4=-4-4-4.--4-4-4.--4-4-6=--|X3
A|-1-1-1.--1-1-1.--1-1-1=-1-1-1.--1-1-1.--1-1-1=-2-2-2.--2-2-2.-2-2-2=-2-2-2.--2-2-2.--2-2-4=--|
D|-1-1-1.--1-1-1.--1-1-1=-1-1-1.--1-1-1.--1-1-1=-----------------------------------------------|

E|---------------------------------------------------------------------------------------|
B|---------------------------------------------------------------------------------------|
G|---------------------------------------------------------------------------------------|
d|-1-1-1.--1-1-1.-1-1-1=-1-1-1.--1-1-1.--1-1-1=--9-9-9.--9-9-9.--9-9-9=-6=--8=--9-8====--|
A|-1-1-1.--1-1-1.-1-1-1=-1-1-1.--1-1-1.--1-1-1=--9-9-9.--9-9-9.--9-9-9=-6=--8=--9-8====--|
D|-1-1-1.--1-1-1.-1-1-1=-1-1-1.--1-1-1.--1-1-1=--9-9-9.--9-9-9.--9-9-9=-6=--8=--9-8====--|

Outro
Guitar 1 Intro (G1 has a kind of phaser sound)
E|----(x8)-----(x8)----|  |--------|
B|-66666666-x-77777777-|  |-7.-7.--|
G|-88888888-x-88888888-|  |-8.-8.--|
d|---------------------|X4|--------|
A|---------------------|  |--------|
D|---------------------|  |--------|

Guitar 2 (comes in on the staccato notes of G1)
E|--------------|
B|--------------|
G|--------------|
d|--------------|
A|--4-6-7-6-4-2-|
D|--4-6-7-6-4-2-|

Chorus (Both Guitars)
E|---------------------------------------------------------|
B|---------------------------------------------------------|
G|---------------------------------------------------------|
d|-1-1--7-6-4-1-1--7-6-4-1-1-1--1-1--7-6-4-1-1--7-6-1-4=---|X3
A|-1-1--7-6-4-1-1--7-6-4-1-1-1--1-1--7-6-4-1-1--7-6-1-4=---|
D|-1-1--7-6-4-1-1--7-6-4-1-1-1--1-1--7-6-4-1-1--7-6-1-4=---|

E|-----------------------------------------------------------|
B|----------------------------------------------rit.~~~~~~---|
G|---------------------------------------------|-p.m.~|------|Random noise
d|-1-1--7-6-4-1-1--7-6-4-1-1-1--1-1--7-6-4-1-1-|-7-6-1|-4=---|on last
A|-1-1--7-6-4-1-1--7-6-4-1-1-1--1-1--7-6-4-1-1-|-7-6-1|-4=---|note
D|-1-1--7-6-4-1-1--7-6-4-1-1-1--1-1--7-6-4-1-1-|-7-6-1|-4=---|

| /    slide up
| \    slide down
| p.m  palm muted
| rit. slowdown
| =    hold note
| h    hammer-on
| .    staccato
| p    pull-off
| ~    vibrato
| +    harmonic
| x  Mute note
===============================================================================





Comments


Popular Chevelle tabs & chords
Closure Bass Tabs
Grab Thy Hand Bass Tabs
Letter From A Thief Bass Tabs
Arise Chords
Letter From A Thief 2 Chords
Clones Tabs
Don't Fake This 1 Tabs
Hats Off To The Bull Tabs
Indifference Tabs
Jars 1 Tabs


Song lyrics



↑ Back to top | Tablatures and chords are parodies/interpretations of the original songs. You may use it for private study, scholarship, research or language learning purposes only
© 2014 AZChords.com Contact us | Privacy policy | DMCA | Add/correct tabs | Request tabs | Top 50 tabs