» » »

Chevelle, Another Know It All Tabs (ver.2)

Artists:  A B C D E F G H I J K L M N O P Q R S T U V W X Y Z # 

Another Know It All Tabs (ver.2)

Chevelle Tabs
 Rating:
4/5 (7 votes)
Another Know It All lessons Tabs too difficult? Try these video lessons and learn fast
                Tuning: Drop B

Intro
|-------------------------------------------------------------------|
|-------------------------------------------------------------------|
|-------------------------------------------------------------------|
|-7-7-7-7-7-7-7-7-7-7-7-7-7-7-7-7-3-3-3-3-3-3-3-3-5-5-5-5-3-3-0-0-0-|
|-5-5-5-5-5-5-5-5-5-5-5-5-5-5-5-5-3-3-3-3-3-3-3-3-5-5-5-5-3-3-0-0-0-|
|---------------------------------3-3-3-3-3-3-3-3-5-5-5-5-3-3-0-0-0-|

|----------------------------------------|
|----------------------------------------|
|----------------------------------------|
|-0h5h7--0-5h7p0--0-5h7p0--0-5h7p0-3h4p0-|
|-0h5h7--0-5h7p0--0-5h7p0--0-5h7p0-3h4p0-|
|-0h5h7--0-5h7p0--0-5h7p0--0-5h7p0-3h4p0-|

Verse
|---------------------|
|-----------7*--------|
|-----------7*--------|
|-7*--------7*--------|
|-7*--------7*--------|
|-7*------------------|

2nd Part of Verse
|-----------------------------------------|
|-----------------------------------------|
|-----------------------------------------|
|-0h5h7--0-5h7p0--0-5h7p0--0-5h7p0-3h4p0--|
|-0h5h7--0-5h7p0--0-5h7p0--0-5h7p0-3h4p0--|
|-0h5h7--0-5h7p0--0-5h7p0--0-5h7p0-3h4p0--|

Chorus
|-------------------------------------------------------------------|
|-------------------------------------------------------------------|
|-------------------------------------------------------------------|
|-7-7-7-7-7-7-7-7-7-7-7-7-7-7-7-7-3-3-3-3-3-3-3-3-5-5-5-5-3-3-0-0-0-|
|-5-5-5-5-5-5-5-5-5-5-5-5-5-5-5-5-3-3-3-3-3-3-3-3-5-5-5-5-3-3-0-0-0-|
|---------------------------------3-3-3-3-3-3-3-3-5-5-5-5-3-3-0-0-0-|

Interlude
|---------------------------------------------------------|
|---------------------------------------------------------|
|-------10-10-10-10-10-10-10-10-------10-10-10-10-9-9-9-9-|
|-0-0-0--x--x--x--x--x--x--x--x-0-0-0--x--x--x--x-x-x-x-x-|
|-0-0-0--8--8--8--8--8--8--8--8-0-0-0--8--8--8--8-7-7-7-7-|
|-0-0-0-------------------------0-0-0---------------------|
  . . .                         . . .

|-------------------------------------------------------------|
|-------------------------------------------------------------|
|-------10-10-10-10-10-10-10-10-------10-10-10-10-13-13-13-13-|
|-0-0-0--x--x--x--x--x--x--x--x-0-0-0--x--x--x--x--x--x--x--x-|
|-0-0-0--8--8--8--8--8--8--8--8-0-0-0--8--8--8--8-11-11-11-11-|
|-0-0-0-------------------------0-0-0-------------------------|
  . . .                         . . .

|---------------------------------------------------------|
|---------------------------------------------------------|
|-------10-10-10-10-10-10-10-10-------10-10-10-10-9-9-9-9-|
|-0-0-0--x--x--x--x--x--x--x--x-0-0-0--x--x--x--x-x-x-x-x-|
|-0-0-0--8--8--8--8--8--8--8--8-0-0-0--8--8--8--8-7-7-7-7-|
|-0-0-0-------------------------0-0-0---------------------|
  . . .                         . . .

|-------------------------------------------------------------|
|-------------------------------------------------------------|
|-------10-10-10-10-10-10-10-10-------10-10-10-10-13-13-13-13-|
|-0-0-0--x--x--x--x--x--x--x--x-0-0-0--x--x--x--x--x--x--x--x-|
|-0-0-0--8--8--8--8--8--8--8--8-0-0-0--8--8--8--8-11-11-11-11-|
|-0-0-0-------------------------0-0-0-------------------------|
  . . .                         . . .

|-------------------------------------------------------------|
|-------------------------------------------------------------|
|---------10-10-10-10-10-10-10-10---------10-10-10-10-9-9-9-9-|
|-00-00-0--x--x--x--x--x--x--x--x-00-00-0--x--x--x--x-x-x-x-x-|
|-00-00-0--8--8--8--8--8--8--8--8-00-00-0--8--8--8--8-7-7-7-7-|
|-00-00-0-------------------------00-00-0---------------------|
  .. .. .                         .. .. .

|-----------------------------------------------------------------|
|-----------------------------------------------------------------|
|--------10-10-10-10-10-10-10-10----------10-10-10-10-13-13-13-13-|
|-00-00-0--x--x--x--x--x--x--x--x-00-00-0--x--x--x--x--x--x--x--x-|
|-00-00-0--8--8--8--8--8--8--8--8-00-00-0--8--8--8--8-11-11-11-11-|
|-00-00-0-------------------------00-00-0-------------------------|
  .. .. .                         .. .. .

|-------------------------------------------------------------|
|-------------------------------------------------------------|
|---------10-10-10-10-10-10-10-10---------10-10-10-10-9-9-9-9-|
|-00-00-0--x--x--x--x--x--x--x--x-00-00-0--x--x--x--x-x-x-x-x-|
|-00-00-0--8--8--8--8--8--8--8--8-00-00-0--8--8--8--8-7-7-7-7-|
|-00-00-0-------------------------00-00-0---------------------|
  .. .. .                         .. .. .

|---------------------------------------------------------|
|---------------------------------------------------------|
|---------10-10-10-10-10-10-10-10-------------------------|
|-00-00-0--x--x--x--x--x--x--x--x-3-3-x-x-3-3-x-x-x-x-x-x-|
|-00-00-0--8--8--8--8--8--8--8--8-3-3-x-x-3-3-x-x-x-x-x-x-|
|-00-00-0-------------------------3-3-x-x-3-3-x-x-x-x-x-x-|
  .. .. .
            
Submit corrections

comments powered by Disqus
↑ Back to top | Chevelle Tabs for Another Know It All. Lyrics for acoustic guitar and electric guitar. Tablatures and chords are parodies/interpretations of the original songs. You may use it for private study, scholarship, research or language learning purposes only