>
 >
Another Know It All

Another Know It All Guitar Tabs

Chevelle - Another Know It All chords, tabs, tablatures, lyrics

Guitar lessons | Add/correct | Request | Top 50 tabs Artists:  A B C D E F G H I J K L M N O P Q R S T U V W X Y Z 0-9

Another Know It All Guitar Tabs – Chevelle

CD, Sheet music, Poster

Do you like Another Know It All? Share with your friends now
Bass TabsTabsTabs v2Tabs v3Tabs v4Tabs v5
Band- Chevelle
Song- Another Know It All
Tuning- Drop B

* = Harmonic
. = Palm Mute


C#------------------------------------------------------------------------|
G#------------------------------------------------------------------------|
E-------------------------------------------------------------------------|
B---12-12-12-12-12-12-12-12-12-12-12-12-3-3-3-3-3-3-3-3-5-5-5-5-3-3-0-0-0-|
F#--12-12-12-12-12-12-12-12-12-12-12-12-3-3-3-3-3-3-3-3-5-5-5-5-3-3-0-0-0-|
B---12-12-12-12-12-12-12-12-12-12-12-12-3-3-3-3-3-3-3-3-5-5-5-5-3-3-0-0-0-|

C#------------------------------------------------------------------------|
G#------------------------------------------------------------------------|
E-------------------------------------------------------------------------|
B---12-12-12-12-12-12-12-12-12-12-12-12-3-3-3-3-3-3-3-3-5-5-5-5-3-3-0-0-0-|
F#--12-12-12-12-12-12-12-12-12-12-12-12-3-3-3-3-3-3-3-3-5-5-5-5-3-3-0-0-0-|
B---12-12-12-12-12-12-12-12-12-12-12-12-3-3-3-3-3-3-3-3-5-5-5-5-3-3-0-0-0-|

C#------------------------------------------------------------------------|
G#------------------------------------------------------------------------|
E-------------------------------------------------------------------------|
B---12-12-12-12-12-12-12-12-12-12-12-12-3-3-3-3-3-3-3-3-5-5-5-5-3-3-0-0-0-|
F#--12-12-12-12-12-12-12-12-12-12-12-12-3-3-3-3-3-3-3-3-5-5-5-5-3-3-0-0-0-|
B---12-12-12-12-12-12-12-12-12-12-12-12-3-3-3-3-3-3-3-3-5-5-5-5-3-3-0-0-0-|

C#----------------------------------------------------------------------|
G#----------------------------------------------------------------------|
E-----------------------------------------------------------------------|
B---12-12-12-12-12-12-12-12-12-12-12-12-3-3-3-3-3-3-3-3-3-3-2-2-2-2-2-2-|
F#--12-12-12-12-12-12-12-12-12-12-12-12-3-3-3-3-3-3-3-3-3-3-2-2-2-2-2-2-|
B---12-12-12-12-12-12-12-12-12-12-12-12-3-3-3-3-3-3-3-3-3-3-2-2-2-2-2-2-|

C#-------------------------------------------------|
G#-------------------------------------------------|
E--------------------------------------------------|
B---3h5-0---0--3h5-0---0--3h5-0---0--3h5-0--2h3-0--|
F#--3h5-0---0--3h5-0---0--3h5-0---0--3h5-0--2h3-0--|
B---3h5-0---0--3h5-0---0--3h5-0---0--3h5-0--2h3-0--|

C#-------------------------------------------------|
G#-------------------------------------------------|
E--------------------------------------------------|
B---3h5-0---0--3h5-0---0--3h5-0---0--3h5-0--2h3-0--|
F#--3h5-0---0--3h5-0---0--3h5-0---0--3h5-0--2h3-0--|
B---3h5-0---0--3h5-0---0--3h5-0---0--3h5-0--2h3-0--|

C#-------------------------------------------------|
G#-------------------------------------------------|
E--------------------------------------------------|
B-------8*----------------------8*-----------------|
F#------8*----------------------8*-----------------|
B-------8*----------------------8*-----------------|

C#-------------------------------------------------|
G#-------------------------------------------------|
E--------------------------------------------------|
B---3h5-0---0--3h5-0---0--3h5-0---0--3h5-0--2h3-0--|
F#--3h5-0---0--3h5-0---0--3h5-0---0--3h5-0--2h3-0--|
B---3h5-0---0--3h5-0---0--3h5-0---0--3h5-0--2h3-0--|

C#-------------------------------------------------|
G#-------------------------------------------------|
E--------------------------------------------------|
B---3h5-0---0--3h5-0---0--3h5-0---0--3h5-0--2h3-0--|
F#--3h5-0---0--3h5-0---0--3h5-0---0--3h5-0--2h3-0--|
B---3h5-0---0--3h5-0---0--3h5-0---0--3h5-0--2h3-0--|

C#-------------------------------------------------|
G#-------------------------------------------------|
E--------------------------------------------------|
B---3h5-0---0--3h5-0---0--3h5-0---0--3h5-0--2h3-0--|
F#--3h5-0---0--3h5-0---0--3h5-0---0--3h5-0--2h3-0--|
B---3h5-0---0--3h5-0---0--3h5-0---0--3h5-0--2h3-0--|

C#-------------------------------------------------|
G#-------------------------------------------------|
E--------------------------------------------------|
B---3h5-0---0--3h5-0---0--3h5-0---0--3h5-0--2h3-0--|
F#--3h5-0---0--3h5-0---0--3h5-0---0--3h5-0--2h3-0--|
B---3h5-0---0--3h5-0---0--3h5-0---0--3h5-0--2h3-0--|

C#------------------------------------------------------------------------|
G#------------------------------------------------------------------------|
E-------------------------------------------------------------------------|
B---12-12-12-12-12-12-12-12-12-12-12-12-3-3-3-3-3-3-3-3-5-5-5-5-3-3-0-0-0-|
F#--12-12-12-12-12-12-12-12-12-12-12-12-3-3-3-3-3-3-3-3-5-5-5-5-3-3-0-0-0-|
B---12-12-12-12-12-12-12-12-12-12-12-12-3-3-3-3-3-3-3-3-5-5-5-5-3-3-0-0-0-|

C#------------------------------------------------------------------------|
G#------------------------------------------------------------------------|
E-------------------------------------------------------------------------|
B---12-12-12-12-12-12-12-12-12-12-12-12-3-3-3-3-3-3-3-3-5-5-5-5-3-3-0-0-0-|
F#--12-12-12-12-12-12-12-12-12-12-12-12-3-3-3-3-3-3-3-3-5-5-5-5-3-3-0-0-0-|
B---12-12-12-12-12-12-12-12-12-12-12-12-3-3-3-3-3-3-3-3-5-5-5-5-3-3-0-0-0-|

C#------------------------------------------------------------------------|
G#------------------------------------------------------------------------|
E-------------------------------------------------------------------------|
B---12-12-12-12-12-12-12-12-12-12-12-12-3-3-3-3-3-3-3-3-5-5-5-5-3-3-0-0-0-|
F#--12-12-12-12-12-12-12-12-12-12-12-12-3-3-3-3-3-3-3-3-5-5-5-5-3-3-0-0-0-|
B---12-12-12-12-12-12-12-12-12-12-12-12-3-3-3-3-3-3-3-3-5-5-5-5-3-3-0-0-0-|

C#----------------------------------------------------------------------|
G#----------------------------------------------------------------------|
E-----------------------------------------------------------------------|
B---12-12-12-12-12-12-12-12-12-12-12-12-3-3-3-3-3-3-3-3-3-3-2-2-2-2-2-2-|
F#--12-12-12-12-12-12-12-12-12-12-12-12-3-3-3-3-3-3-3-3-3-3-2-2-2-2-2-2-|
B---12-12-12-12-12-12-12-12-12-12-12-12-3-3-3-3-3-3-3-3-3-3-2-2-2-2-2-2-|

C#-------------------------------------------------|
G#-------------------------------------------------|
E--------------------------------------------------|
B---3h5-0---0--3h5-0---0--3h5-0---0--3h5-0--2h3-0--|
F#--3h5-0---0--3h5-0---0--3h5-0---0--3h5-0--2h3-0--|
B---3h5-0---0--3h5-0---0--3h5-0---0--3h5-0--2h3-0--|

C#-------------------------------------------------|
G#-------------------------------------------------|
E--------------------------------------------------|
B---3h5-0---0--3h5-0---0--3h5-0---0--3h5-0--2h3-0--|
F#--3h5-0---0--3h5-0---0--3h5-0---0--3h5-0--2h3-0--|
B---3h5-0---0--3h5-0---0--3h5-0---0--3h5-0--2h3-0--|

C#-------------------------------------------------|
G#-------------------------------------------------|
E--------------------------------------------------|
B-------8*----------------------8*-----------------|
F#------8*----------------------8*-----------------|
B-------8*----------------------8*-----------------|

C#-------------------------------------------------|
G#-------------------------------------------------|
E--------------------------------------------------|
B---3h5-0---0--3h5-0---0--3h5-0---0--3h5-0--2h3-0--|
F#--3h5-0---0--3h5-0---0--3h5-0---0--3h5-0--2h3-0--|
B---3h5-0---0--3h5-0---0--3h5-0---0--3h5-0--2h3-0--|

C#-------------------------------------------------|
G#-------------------------------------------------|
E--------------------------------------------------|
B---3h5-0---0--3h5-0---0--3h5-0---0--3h5-0--2h3-0--|
F#--3h5-0---0--3h5-0---0--3h5-0---0--3h5-0--2h3-0--|
B---3h5-0---0--3h5-0---0--3h5-0---0--3h5-0--2h3-0--|

C#-------------------------------------------------|
G#-------------------------------------------------|
E--------------------------------------------------|
B---3h5-0---0--3h5-0---0--3h5-0---0--3h5-0--2h3-0--|
F#--3h5-0---0--3h5-0---0--3h5-0---0--3h5-0--2h3-0--|
B---3h5-0---0--3h5-0---0--3h5-0---0--3h5-0--2h3-0--|

C#-------------------------------------------------|
G#-------------------------------------------------|
E--------------------------------------------------|
B---3h5-0---0--3h5-0---0--3h5-0---0--3h5-0--2h3-0--|
F#--3h5-0---0--3h5-0---0--3h5-0---0--3h5-0--2h3-0--|
B---3h5-0---0--3h5-0---0--3h5-0---0--3h5-0--2h3-0--|

C#------------------------------------------------------------------------|
G#------------------------------------------------------------------------|
E-------------------------------------------------------------------------|
B---12-12-12-12-12-12-12-12-12-12-12-12-3-3-3-3-3-3-3-3-5-5-5-5-3-3-0-0-0-|
F#--12-12-12-12-12-12-12-12-12-12-12-12-3-3-3-3-3-3-3-3-5-5-5-5-3-3-0-0-0-|
B---12-12-12-12-12-12-12-12-12-12-12-12-3-3-3-3-3-3-3-3-5-5-5-5-3-3-0-0-0-|

C#------------------------------------------------------------------------|
G#------------------------------------------------------------------------|
E-------------------------------------------------------------------------|
B---12-12-12-12-12-12-12-12-12-12-12-12-3-3-3-3-3-3-3-3-5-5-5-5-3-3-0-0-0-|
F#--12-12-12-12-12-12-12-12-12-12-12-12-3-3-3-3-3-3-3-3-5-5-5-5-3-3-0-0-0-|
B---12-12-12-12-12-12-12-12-12-12-12-12-3-3-3-3-3-3-3-3-5-5-5-5-3-3-0-0-0-|

C#------------------------------------------------------------------------|
G#------------------------------------------------------------------------|
E-------------------------------------------------------------------------|
B---12-12-12-12-12-12-12-12-12-12-12-12-3-3-3-3-3-3-3-3-5-5-5-5-3-3-0-0-0-|
F#--12-12-12-12-12-12-12-12-12-12-12-12-3-3-3-3-3-3-3-3-5-5-5-5-3-3-0-0-0-|
B---12-12-12-12-12-12-12-12-12-12-12-12-3-3-3-3-3-3-3-3-5-5-5-5-3-3-0-0-0-|

C#----------------------------------------------------------------------|
G#----------------------------------------------------------------------|
E-----------------------------------------------------------------------|
B---12-12-12-12-12-12-12-12-12-12-12-12-3-3-3-3-3-3-3-3-3-3-2-2-2-2-2-2-|
F#--12-12-12-12-12-12-12-12-12-12-12-12-3-3-3-3-3-3-3-3-3-3-2-2-2-2-2-2-|
B---12-12-12-12-12-12-12-12-12-12-12-12-3-3-3-3-3-3-3-3-3-3-2-2-2-2-2-2-|

C#---------------------------------------------------------------------|
G#---------------------------------------------------------------------|
E--------------10-10-10-10-10-10-10-10-------------10-10-10-10-9-9-9-9-|
B---0--0--0--0--x--x--x--x--x--x--x--x--0--0--0--0--x--x--x--x-x-x-x-x-|
F#--0--0--0--0--8--8--8--8--8--8--8--8--0--0--0--0--8--8--8--8-7-7-7-7-|
B---0--0--0--0--------------------------0--0--0--0---------------------|
    .  .  .  .                          .  .  .  .
C#-------------------------------------------------------------------------|
G#-------------------------------------------------------------------------|
E--------------10-10-10-10-10-10-10-10-------------10-10-10-10-13-13-13-13-|
B---0--0--0--0--x--x--x--x--x--x--x--x--0--0--0--0--x--x--x--x--x--x--x--x-|
F#--0--0--0--0--8--8--8--8--8--8--8--8--0--0--0--0--8--8--8--8-11-11-11-11-|
B---0--0--0--0--------------------------0--0--0--0-------------------------|
    .  .  .  .                          .  .  .  .
C#---------------------------------------------------------------------|
G#---------------------------------------------------------------------|
E--------------10-10-10-10-10-10-10-10-------------10-10-10-10-9-9-9-9-|
B---0--0--0--0--x--x--x--x--x--x--x--x--0--0--0--0--x--x--x--x-x-x-x-x-|
F#--0--0--0--0--8--8--8--8--8--8--8--8--0--0--0--0--8--8--8--8-7-7-7-7-|
B---0--0--0--0--------------------------0--0--0--0---------------------|
    .  .  .  .                          .  .  .  .
C#-------------------------------------------------------------------------|
G#-------------------------------------------------------------------------|
E--------------10-10-10-10-10-10-10-10-------------10-10-10-10-13-13-13-13-|
B---0--0--0--0--x--x--x--x--x--x--x--x--0--0--0--0--x--x--x--x--x--x--x--x-|
F#--0--0--0--0--8--8--8--8--8--8--8--8--0--0--0--0--8--8--8--8-11-11-11-11-|
B---0--0--0--0--------------------------0--0--0--0-------------------------|
    .  .  .  .                          .  .  .  .
C#-----------------------------------------------------------------------------|
G#-----------------------------------------------------------------------------|
E------------------10-10-10-10-10-10-10-10-----------------10-10-10-10-9-9-9-9-|
B---0-0--0-0-0-0-0--x--x--x--x--x--x--x--x--0-0--0-0-0-0-0--x--x--x--x-x-x-x-x-|
F#--0-0--0-0-0-0-0--8--8--8--8--8--8--8--8--0-0--0-0-0-0-0--8--8--8--8-7-7-7-7-|
B---0-0--0-0-0-0-0--------------------------0-0--0-0-0-0-0---------------------|
    . .  . . . . .                          . .  . . . . .
C#---------------------------------------------------------------------------------|
G#---------------------------------------------------------------------------------|
E------------------10-10-10-10-10-10-10-10-----------------10-10-10-10-13-13-13-13-|
B---0-0--0-0-0-0-0--x--x--x--x--x--x--x--x--0-0--0-0-0-0-0--x--x--x--x--x--x--x--x-|
F#--0-0--0-0-0-0-0--8--8--8--8--8--8--8--8--0-0--0-0-0-0-0--8--8--8--8-11-11-11-11-|
B---0-0--0-0-0-0-0--------------------------0-0--0-0-0-0-0-------------------------|
    . .  . . . . .                          . .  . . . . .

C#-----------------------------------------------------------------------------|
G#-----------------------------------------------------------------------------|
E------------------10-10-10-10-10-10-10-10-----------------10-10-10-10-9-9-9-9-|
B---0-0--0-0-0-0-0--x--x--x--x--x--x--x--x--0-0--0-0-0-0-0--x--x--x--x-x-x-x-x-|
F#--0-0--0-0-0-0-0--8--8--8--8--8--8--8--8--0-0--0-0-0-0-0--8--8--8--8-7-7-7-7-|
B---0-0--0-0-0-0-0--------------------------0-0--0-0-0-0-0---------------------|
    . .  . . . . .                          . .  . . . . .
C#--------------------------------------------------------------------------|
G#--------------------------------------------------------------------------|
E------------------10-10-10-10-10-10-10-10----------------------------------|
B---0-0--0-0-0-0-0--x--x--x--x--x--x--x--x--3-3-x-x-x-x-x-x-5-5-x-x-x-x-x-x-|
F#--0-0--0-0-0-0-0--8--8--8--8--8--8--8--8--3-3-x-x-x-x-x-x-5-5-x-x-x-x-x-x-|
B---0-0--0-0-0-0-0--------------------------3-3-x-x-x-x-x-x-5-5-x-x-x-x-x-x-|
    . .  . . . . .
C#------------------------------------------------------------------------|
G#------------------------------------------------------------------------|
E-------------------------------------------------------------------------|
B---12-12-12-12-12-12-12-12-12-12-12-12-3-3-3-3-3-3-3-3-5-5-5-5-3-3-0-0-0-|
F#--12-12-12-12-12-12-12-12-12-12-12-12-3-3-3-3-3-3-3-3-5-5-5-5-3-3-0-0-0-|
B---12-12-12-12-12-12-12-12-12-12-12-12-3-3-3-3-3-3-3-3-5-5-5-5-3-3-0-0-0-|

C#------------------------------------------------------------------------|
G#------------------------------------------------------------------------|
E-------------------------------------------------------------------------|
B---12-12-12-12-12-12-12-12-12-12-12-12-3-3-3-3-3-3-3-3-5-5-5-5-3-3-0-0-0-|
F#--12-12-12-12-12-12-12-12-12-12-12-12-3-3-3-3-3-3-3-3-5-5-5-5-3-3-0-0-0-|
B---12-12-12-12-12-12-12-12-12-12-12-12-3-3-3-3-3-3-3-3-5-5-5-5-3-3-0-0-0-|

C#------------------------------------------------------------------------|
G#------------------------------------------------------------------------|
E-------------------------------------------------------------------------|
B---12-12-12-12-12-12-12-12-12-12-12-12-3-3-3-3-3-3-3-3-5-5-5-5-3-3-0-0-0-|
F#--12-12-12-12-12-12-12-12-12-12-12-12-3-3-3-3-3-3-3-3-5-5-5-5-3-3-0-0-0-|
B---12-12-12-12-12-12-12-12-12-12-12-12-3-3-3-3-3-3-3-3-5-5-5-5-3-3-0-0-0-|

C#------------------------------------------------------------------------|
G#------------------------------------------------------------------------|
E-------------------------------------------------------------------------|
B---12-12-12-12-12-12-12-12-12-12-12-12-3-3-3-3-3-3-3-3-5-5-5-5-3-3-0-0-0-|
F#--12-12-12-12-12-12-12-12-12-12-12-12-3-3-3-3-3-3-3-3-5-5-5-5-3-3-0-0-0-|
B---12-12-12-12-12-12-12-12-12-12-12-12-3-3-3-3-3-3-3-3-5-5-5-5-3-3-0-0-0-|

C#------------------------------------------------------------------------|
G#------------------------------------------------------------------------|
E-------------------------------------------------------------------------|
B---12-12-12-12-12-12-12-12-12-12-12-12-3-3-3-3-3-3-3-3-5-5-5-5-3-3-0-0-0-|
F#--12-12-12-12-12-12-12-12-12-12-12-12-3-3-3-3-3-3-3-3-5-5-5-5-3-3-0-0-0-|
B---12-12-12-12-12-12-12-12-12-12-12-12-3-3-3-3-3-3-3-3-5-5-5-5-3-3-0-0-0-|

C#------------------------------------------------------------------------|
G#------------------------------------------------------------------------|
E-------------------------------------------------------------------------|
B---12-12-12-12-12-12-12-12-12-12-12-12-3-3-3-3-3-3-3-3-5-5-5-5-3-3-0-0-0-|
F#--12-12-12-12-12-12-12-12-12-12-12-12-3-3-3-3-3-3-3-3-5-5-5-5-3-3-0-0-0-|
B---12-12-12-12-12-12-12-12-12-12-12-12-3-3-3-3-3-3-3-3-5-5-5-5-3-3-0-0-0-|

C#------------------------------------------------------------------------|
G#------------------------------------------------------------------------|
E-------------------------------------------------------------------------|
B---12-12-12-12-12-12-12-12-12-12-12-12-3-3-3-3-3-3-3-3-5-5-5-5-3-3-0-0-0-|
F#--12-12-12-12-12-12-12-12-12-12-12-12-3-3-3-3-3-3-3-3-5-5-5-5-3-3-0-0-0-|
B---12-12-12-12-12-12-12-12-12-12-12-12-3-3-3-3-3-3-3-3-5-5-5-5-3-3-0-0-0-|

C#---------------------------------------------------------------|
G#---------------------------------------------------------------|
E----------------------------------------------------------------|
B---12-12-12-12-12-12-12-12-12-12-12-12-3-3--3-3--3-3--2-2--2--2-|
F#--12-12-12-12-12-12-12-12-12-12-12-12-3-3--3-3--3-3--2-2--2--2-|
B---12-12-12-12-12-12-12-12-12-12-12-12-3-3--3-3--3-3--2-2--2--2-|

C#-------------------------------------------------|
G#-------------------------------------------------|
E--------------------------------------------------|
B---3h5-0---0--3h5-0---0--3h5-0---0--3h5-0--2h3-0--|
F#--3h5-0---0--3h5-0---0--3h5-0---0--3h5-0--2h3-0--|
B---3h5-0---0--3h5-0---0--3h5-0---0--3h5-0--2h3-0--|

C#-------------------------------------------------|
G#-------------------------------------------------|
E--------------------------------------------------|
B---3h5-0---0--3h5-0---0--3h5-0---0--3h5-0--2h3-0--|
F#--3h5-0---0--3h5-0---0--3h5-0---0--3h5-0--2h3-0--|
B---3h5-0---0--3h5-0---0--3h5-0---0--3h5-0--2h3-0--|

C#-------------------------------------------------------|
G#-------------------------------------------------------|
E--------------------------------------------------------|
B---3h5-0--xxxx--3h5-0--xxxx--3h5-0--xxxx--3h5-0--2h3-0--|
F#--3h5-0--xxxx--3h5-0--xxxx--3h5-0--xxxx--3h5-0--2h3-0--|
B---3h5-0--xxxx--3h5-0--xxxx--3h5-0--xxxx--3h5-0--2h3-0--|

C#-------------------------------------------------------|
G#-------------------------------------------------------|
E--------------------------------------------------------|
B---3h5-0--xxxx--3h5-0--xxxx--3h5-0--xxxx--3h5-0--2h3-0--|       (Fade Out)
F#--3h5-0--xxxx--3h5-0--xxxx--3h5-0--xxxx--3h5-0--2h3-0--|
B---3h5-0--xxxx--3h5-0--xxxx--3h5-0--xxxx--3h5-0--2h3-0--|

ENJOY!!!!





Comments


Popular Chevelle tabs & chords
Grab Thy Hand Bass Tabs
To Return Bass Tabs
Until Your Reformed Bass Tabs
Panic Prone Chords
An Evening With El Diablo 1 Tabs
Another Know It All 1 Tabs
Don't Fake This 1 Tabs
Letos Headache Tabs
Pictures Of You Tabs
The Clincher 1 Tabs


Song lyrics



↑ Back to top | Tablatures and chords are parodies/interpretations of the original songs. You may use it for private study, scholarship, research or language learning purposes only
© 2014 AZChords.com Contact us | Privacy policy | DMCA | Add/correct tabs | Request tabs | Top 50 tabs