» » »

Another Know It All Tabs (ver.3)

Artists:  A B C D E F G H I J K L M N O P Q R S T U V W X Y Z # 

Another Know It All Tabs (ver.3)

Chevelle
Rating:
3/5 (2 votes)

Hard to play? Try these video lessons and learn fast.
                -----------------------------------------------------------------------------
                             Another Know It All - Chevelle
-----------------------------------------------------------------------------

After just attending a Chevelle concert and watching Pete closely, I can say this
is 100% correct. Listen to the song for chorus/verse/interlude timing.

     Intro/Chorus
C#|---------------------------------------------------------------------------|
G#|---------------------------------------------------------------------------|
E |---------------------------------------------------------------------------|
B |--7777777777777777--333333-555555-33-00------------------------------------|
F#|--5555555555555555--333333-555555-33-00------------------------------------|
B |--0000000000000000--333333-555555-33-00------------------------------------|

     Repeat 3x, then on the fourth play this:
C#|---------------------------------------------------------------------------|
G#|---------------------------------------------------------------------------|
E |---------------------------------------------------------------------------|
B |--7777777777777777--333333-222222------------------------------------------|
F#|--5555555555555555--333333-222222------------------------------------------|
B |--0000000000000000--333333-222222------------------------------------------|

     Verse
C#|---------------------------------------------------------------------------|
G#|---------------------------------------------------------------------------|
E |---------------------------------------------------------------------------|
B |---------------------------------------------------------------------------|
F#|---0h6p0--0-0h6p0--0-0h6p0--0-0h6p0-0h3p0----------------------------------|
B |---0h6p0--0-0h6p0--0-0h6p0--0-0h6p0-0h3p0----------------------------------|
     Play 2 times

C#|--8*---------------8*------------------------------------------------------|
G#|--8*---------------8*------------------------------------------------------|
E |--8*---------------8*------------------------------------------------------|
B |--0~~~~------------0~~~~---------------------------------------------------|
F#|--0~~~~------------0~~~~---------------------------------------------------|
B |--0~~~~------------0~~~~---------------------------------------------------|
     Let ring
     *=harmonic
C#|---------------------------------------------------------------------------|
G#|---------------------------------------------------------------------------|
E |---------------------------------------------------------------------------|
B |---------------------------------------------------------------------------|
F#|---0h6p0--0-0h6p0--0-0h6p0--0-0h6p0-0h3p0----------------------------------|
B |---0h6p0--0-0h6p0--0-0h6p0--0-0h6p0-0h3p0----------------------------------|

     Play 4 times I think. Listen to the song :)

   Interlude
C#|--------------------------------------------------------------------------|
G#|--------------------------------------------------------------------------|
E |-------10----------10-9----------10----------10-13------------------------|
B |-------x-----------x--x----------x-----------x--x-------------------------|
F#|--0000-8------0000-8--7-----0000-8------0000-8--11------------------------|
B |--0000--------0000----------0000--------0000------------------------------|
     PM          PM            PM          PM

    Pete uses a tremolo picking effect on the parts that aren't PM


   Outro
C#|--------------------------------------------------------------------------|
G#|--------------------------------------------------------------------------|
E |--------------------------------------------------------------------------|
B |--------------------------------------------------------------------------|
F#|---0h6p0-xxxx-0h6p0-xxxx-0h6p0-xxxx-0h6p0-0h3p0---------------------------|
B |---0h6p0-xxxx-0h6p0-xxxx-0h6p0-xxxx-0h6p0-0h3p0---------------------------|


That's pretty much it. It's really easy and it's pretty fun to play.
Hope you guys find it useful, it's my first tab so be kind on the ratings.
=============================================================================
| /  slide up
| \  slide down
| h  hammer-on
| p  pull-off
| ~  vibrato
| +  harmonic
| x  Mute note
=============================================================================
            
Hard to play? Try these video lessons and learn fast. | Correct




comments powered by Disqus
↑ Back to top | Tablatures and chords are parodies/interpretations of the original songs. You may use it for private study, scholarship, research or language learning purposes only