» » »

Another Know It All Bass tabs (ver.1)

Artists:  A B C D E F G H I J K L M N O P Q R S T U V W X Y Z # 

Another Know It All Bass tabs (ver.1)

Chevelle
Rating:
3/5 (1 vote)

Hard to play? Try these video lessons and learn fast.
                Chevelle - Another Know It All

Intro/Chorus
G|--------------------------|   |----------------------|
D|--------------------------|   |----------------------|
A|--------------------------|x3 |----------------------|
E|-777777777777-------------|   |-777777777777---------|
B|-------------333355555555-|   |-------------33332222-|

Verse
|-----------------------------------|
|-----------------------------------|
|-----------------------------------| (Do not play in verse 1)
|-----------------------------------|
|-0-5-0---0-5-0---0-5-0---0-5-0-4-0-|

|------|
|------|
|------|x15
|------|
|-5-00-|

|--------------------------------|
|--------------------------------|
|--------------------------------|x4
|--------------------------------|
|-0-5-0---0-5-0---0-5-0---0-5-0-4|

Bridge
|---------------------------|
|---------------------------|
|---------------------------|x4
|---------------------------|
|-0-0-0-0-----0-0-0-0-------|

|-----------------------|
|-----------------------|
|-----------------------|x4
|-----------------------|
|00-0000----00-0000-----|

Order:
Intro/Chorus
Verse
Intro/Chorus
Verse
Intro/Chorus
Bridge
Intro/Chorus
Verse (3rd part)
 __   _
/  \ |_\
\__/ | \

The rest of this album is played in A#, so if you hate changing tunings a lot...

Chevelle - Another Know It All

Intro/Chorus
D#|--------------------------|   |----------------------|
A#|--------------------------|x3 |----------------------|
F |-666666666666-------------|   |-666666666666---------|
A#|-------------444466666666-|   |-------------44443333-|

Verse
|-----------------------------------|
|-----------------------------------| (Do not play in verse 1)
|-----------------------------------|
|-0-6-0---0-6-0---0-6-0---0-6-0-4-0-|

|------|
|------|x15
|------|
|-5-00-|

|--------------------------------|
|--------------------------------|x4
|--------------------------------|
|-0-6-0---0-6-0---0-6-0---0-6-0-4|

Bridge
|---------------------------|
|---------------------------|x4
|---------------------------|
|-1-1-1-1-----1-1-1-1-------|

|-----------------------|
|-----------------------|x4
|-----------------------|
|00-0000----00-0000-----|

Order:
Intro/Chorus
Verse
Intro/Chorus
Verse
Intro/Chorus
Bridge
Intro/Chorus
Verse (3rd part)
            
Hard to play? Try these video lessons and learn fast. | Correct




comments powered by Disqus
↑ Back to top | Tablatures and chords are parodies/interpretations of the original songs. You may use it for private study, scholarship, research or language learning purposes only