» » »

Caliban, It's Our Burden To Bleed Tabs (ver.3)

Artists:  A B C D E F G H I J K L M N O P Q R S T U V W X Y Z # 

It's Our Burden To Bleed Tabs (ver.3)

Caliban Tabs
 Rating:
4/5 (4 votes)
It's Our Burden To Bleed lessons Tabs too difficult? Try these video lessons and learn fast
1
                1||----------------------------------------------------------------||x4
2||----------------------------------------------------------------||
3||----------------------------------------------------------------||
4||----------------------------------------------------------------||
5||----8-5---7-3-----3-5-------------8-5----10-8-----3-5-----------||
6||-0..----0..---0..-----3-5-3-2h3-0..--0..------0..-----3-5-3-2h3-||

--------||x2	||----------------||x2	||------||
--------||	||----------------||	||------||
---10-9-||	||----------------||	||------||
-0------||	||----------------||	||0-0-0-||
-0-8--7-||	||0..-5..-3..-7..-||	||0-0-0-||
-0------||	||0..-5..-3..-7..-||	||0-0-0-||

||----------------------------------------------------------------||x2
||----------------------------------------------------------------||
||----------------------------------------------------------------||
||----------------------------------------------------------------||
||----8-5---7-3-----3-5-------------8-5----10-8-----3-5-----------||
||-0..----0..---0..-----3-5-3-2h3-0..--0..------0..-----3-5-3-2h3-||

--------||x2	||----------------||x2	||------||
--------||	||----------------||	||------||
---10-9-||	||----------------||	||------||
-0------||	||----------------||	||0-0-0-||
-0-8--7-||	||0..-5..-3..-7..-||	||0-0-0-||
-0------||	||0..-5..-3..-7..-||	||0-0-0-||


||----------------------------------------------------------------||
||----------------------------------------------------------------||
||----------------------------------------------------------------||
||----------------------------------------------------------------||
||----8-5---7-3-----3-5-------------8-5----10-8-----3-5-----------||
||-0..----0..---0..-----3-5-3-2h3-0..--0..------0..-----3-5-3-2h3-||

||------------------------------------------||x2
||------------------------------------------||
||------------------------------------------||
||------------------------------------------||
||0-0-0-xx-0-0-0-xx-0-0-0-xx-3-5------------||
||0-0-0-xx-0-0-0-xx-0-0-0-xx-----3-5-3-2h-3-||

||----------------------------------||
||----------------------------------||
||----------------------------------||
||-0~~------------------0-0-0-------||
||-0~~(hasta el punteo)-0-0-0-1-3-4-||
||-0~~------------------0-0-0-1-3-4-||

||----------------------------------||x4
||----------------------------------||
||----------------------------------||
||----------------------------------||
||0-0-1-0-0-4-0---0-0-1----------3*-||
||0-0-1-0-0-4-0---0-0-1-3-5-3-2h3---||
            
Submit corrections

comments powered by Disqus
↑ Back to top | Caliban Tabs for It's Our Burden To Bleed. Lyrics for acoustic guitar and electric guitar. 1 Tablatures and chords are parodies/interpretations of the original songs. You may use it for private study, scholarship, research or language learning purposes only