>
 >
It's Our Burden To Bleed 1

It's Our Burden To Bleed 1 Guitar Tabs

Caliban - It's Our Burden To Bleed 1 chords, tabs, tablatures, lyrics

Guitar lessons | Add/correct | Request | Top 50 tabs Artists:  A B C D E F G H I J K L M N O P Q R S T U V W X Y Z 0-9

It's Our Burden To Bleed 1 Guitar Tabs – Caliban

CD, Sheet music, Poster

Do you like It's Our Burden To Bleed 1? Share with your friends now
Bass TabsTabsTabs v2Tabs v3
Band - Caliban
Song - It's Our Burden To Bleed
Album - The Undying Darkness ( Released 02/24/06 )


Well This Is Calibans New Song From Their New Album " The Undying Darkness"
Released 2 
ago ( 02/24/06 )

Im Sure This is mostly Right

------------------------------- Updated 06/03/06----------------------

Tuning ; C-G-C-F-A-D

Intro:

-------- Awesome Drum Beat --------------------

Guitar I

D|--------------------------------------------------------------|
A|--------------------------------------------------------------|
F|----10--7---9-5--------------------10--7---12--10-------------|
C|-0--10--7---9-5-----------------0--10--7---12--10-------------|
G|-0---8--5---7-3-----------------0---8--5---10--8--------------|
C|-0-----------------3-5-3\2------0-----------------3-5-3/2-----|
                                                   \
                                                    \

                                                    Play Twice
Guitar II                                        /   
                                                    
D|---------------------------------------------| /
A|---------------------------------------------| 
F|---------------------------------------------| 
C|---------------------------------------------|< I want to thank Hand.Of.
G|---------8-5--------7-3----3-5---------------|  Blood For Helping Me
C|--000000-----000000--------------3-5-3\2-----|  With The End Bit, Cheers!
    ......     ......

D|---------------------------------------------| 
A|---------------------------------------------| 
F|---------------------------------------------| 
C|---------------------------------------------|
G|---------8-5--------10-8----3-5--------------|  
C|--000000-----000000--------------3-5-3\2-----|  
    ......     ......



Guitar I& II

D|---------------------------------------------| 
A|---------------------------------------------| 
F|---------------------------------------------| 
C|---------------------------------------------|
G|---------8-5--------7-3----3-5---------------|  
C|--000000-----000000--------------3-5-3\2-----|  
    ......     ......

D|---------------------------------------------| 
A|---------------------------------------------| 
F|---------------------------------------------| 
C|---------------------------------------------|
G|---------8-5--------8-10-----3-5-------------|  
C|--000000-----000000--------------3-5-3\2-----|  
    ......     ......

Verse:

Guitar I

D|---------------------------------|
A|---------------------------------|
F|---------------------------------|
C|-0-0-0000-0-00-0-00--------------| x 3
G|-0-0-0000-0-00-0-00--------------|
C|-0-0-0000-0-00-0-00-3h2-2h3-2p0--|
   . . .... . .. . ..

Guitar II

D|---------------------------------------------| 
A|---------------------------------------------| 
F|---------------------------------------------| 
C|---------------------------------------------|
G|---------8-5--------7-3----3-5---------------|  
C|--000000-----000000--------------3-5-3\2-----|  
    ......     ......

D|---------------------------------------------| 
A|---------------------------------------------| 
F|---------------------------------------------| 
C|---------------------------------------------|
G|---------8-5--------8-10----3-5--------------|  
C|--000000-----000000--------------3-5-3\2-----|  
    ......     ......

Fill.

Guitar I

D|-----------|
A|-----------|
F|-----------|
C|-0~---0~---|  Then Chorus Kicks In....
G|-0~---0~---|
C|-0~---0~---|

Chorus:

Guitar II

D|------------------------------------------|
A|------------------------------------------|
F|-10-10-10-10-10-10-10-10---9--9--9--------|
C|--x--x--x--x--x--x--x--x---x--x--x---(0)--| Then Guitar II Plays...
G|--8--8--8--8--8--8--8--8---7--7--7---(0)--|
C|-------------------------------------(0)--|

D|--------------------------------------------------------------------|
A|--------------------------------------------------------------------|
F|10-10-10-10-10-10-10-10--9-9-9-9-9-9-14--14--14--14--14--14--14-----|
C|-x--x--x--x--x--x--x--x--x-x-x-x-x-x--x---x---x---x---x---x---x-----|
G|-8--8--8--8--8--8--8--8--7-7-7-7-7-7--12--12--12--12--12--12--12----|
C|--------------------------------------------------------------------|

Guitar I

D|-----------------------------------------------------------------------|
A|-----------------------------------------------------------------------|
F|-----------------------------------------------------------------------|
C|-8-8-8-8-8-8-8-8-8-7-7-7--8-8-8-8-8-8-8--7-7-7-7-7-7--12-12-12-12-12-12|
G|-8-8-8-8-8-8-8-8-8-7-7-7--8-8-8-8-8-8-8--7-7-7-7-7-7--12-12-12-12-12-12|
C|-8-8-8-8-8-8-8-8-8-7-7-7--8-8-8-8-8-8-8--7-7-7-7-7-7--12-12-12-12-12-12|

Repeat Chorus twice.
Fill:

Guitar I

D|------------------------------------------------|
A|------------------------------------------------|
F|------------------------------------------------|
C|-000-00000-000-00000-000-00000-000-00000--------| x 6
G|-000-00000-000-00000-000-00000-000-00000--------|
C|-000-00000-000-00000-000-00000-000-00000--------|
   ... ..... ... ..... ... ..... ... .....

Guitar II - Comes In 3rd Time Of Guitar I

D|-------------------------------------------------------------------|
A|-------------------------------------------------------------------|
F|-------------------------------------------------------------------|
C|---55555----8-7-----555557p55-----55555---8-7-----555-3-5-7-10p8h7-|
G|-3----------------6------------3----------------6------------------|
C|-------------------------------------------------------------------|
     .....            .....  ..     .....           ... 


Verse:

Guitar I

D|---------------------------------|
A|---------------------------------|
F|---------------------------------|
C|-0-0-0000-0-00-0-00--------------| x 3
G|-0-0-0000-0-00-0-00--------------|
C|-0-0-0000-0-00-0-00-3h2-2h3-2p0--|
   . . .... . .. . ..

Guitar II

D|---------------------------------------------| 
A|---------------------------------------------| 
F|---------------------------------------------| 
C|---------------------------------------------|
G|---------8-5--------7-3----3-5---------------|  
C|--000000-----000000--------------3-5-3\2-----|  
    ......     ......

D|---------------------------------------------| 
A|---------------------------------------------| 
F|---------------------------------------------| 
C|---------------------------------------------|
G|---------8-5--------8-10----3-5--------------|  
C|--000000-----000000--------------3-5-3\2-----|  
    ......     ......
Chorus:

Guitar II

D|------------------------------------------|
A|------------------------------------------|
F|-10-10-10-10-10-10-10-10---9--9--9--------|
C|--x--x--x--x--x--x--x--x---x--x--x---0~---| Then Guitar II Plays...
G|--8--8--8--8--8--8--8--8---7--7--7---0~---|
C|-------------------------------------0~---|

D|--------------------------------------------------------------------|
A|--------------------------------------------------------------------|
F|10-10-10-10-10-10-10-10--9-9-9-9-9-9-14--14--14--14--14--14--14-----|
C|-x--x--x--x--x--x--x--x--x-x-x-x-x-x--x---x---x---x---x---x---x-----|
G|-8--8--8--8--8--8--8--8--7-7-7-7-7-7--12--12--12--12--12--12--12----|
C|--------------------------------------------------------------------|

Guitar II

D|-----------------------------------------------------------------------|
A|-----------------------------------------------------------------------|
F|-----------------------------------------------------------------------|
C|-8-8-8-8-8-8-8-8-8-7-7-7--8-8-8-8-8-8-8--7-7-7-7-7-7--12-12-12-12-12-12|
G|-8-8-8-8-8-8-8-8-8-7-7-7--8-8-8-8-8-8-8--7-7-7-7-7-7--12-12-12-12-12-12|
C|-8-8-8-8-8-8-8-8-8-7-7-7--8-8-8-8-8-8-8--7-7-7-7-7-7--12-12-12-12-12-12|

Fill:

Guitar I & II

D|------------------------------------------------|
A|------------------------------------------------|
F|------------------------------------------------|
C|-000-00000-000-00000-000-00000-000-00000--------| x 6
G|-000-00000-000-00000-000-00000-000-00000--------|
C|-000-00000-000-00000-000-00000-000-00000--------|
   ... ..... ... ..... ... ..... ... .....

D|---------------------------------------------| 
A|---------------------------------------------| 
F|---------------------------------------------| 
C|---------------------------------------------|
G|---------8-5--------7-3----3-5---------------|  
C|--000000-----000000--------------3-5-3\2-----|  
    ......     ......


D|---------------------------------------------| 
A|---------------------------------------------| 
F|---------------------------------------------| 
C|---------------------------------------------|
G|---------8-5--------8-10----3-5--------------|  
C|--000000-----000000--------------3-5-3\2-----|  
    ......     ......



D|-----------------------------|
A|-----------------------------|
F|-----------------------------|
C|-00-0000-000--00-0000-0000---| x 2
G|-00-0000-000--00-0000-0000---|
C|-00-0000-000--00-0000-0000---|
   ..  .   ..   ..  .   ....    \
                                  Caliban Use Strong Palm Muting And Its
 Really Hard Get The Timing Right,Ive Tabbed It Out As Best I Can , You
Have To Work On It

D|--------------------------|   
A|--------------------------|  
F|--------------------------| 
C|-0-0-0-0-0-0-0-0-0-0------|
G|-0-0-0-0-0-0-0-0-0-0------| 
C|-0-0-0-0-0-0-0-0-0-0------| 
   . . . . . . . . . .
Outro

D|--------------------------------------------------|
A|--------------------------------------------------|
F|--------------------------------------------------| \
C|-1-00000-3-000000-1-0000000-0-3-5-6---3~----------|  \
G|-1-00000-3-000000-1-0000000-0-3-5-6---3~----------|   \
C|-1-00000-3-000000-1-0000000-0-3-5-6---3~----------|
     .....   ......   .......
Play all of this 3 times but on the first two you play this top bar
, then bottom bar 
top bar and finish play playing the bottom bar fading out
                                                      /
D|------------------------------------------------|  /
A|------------------------------------------------| /
F|----------------------------------------3*^-----|
C|-1-00000-3-000000-1-0000000---------------------|
G|-1-00000-3-000000-1-0000000---------6-5---------|
C|-1-00000-3-000000-1-0000000-0-3-5-6-------------|
     .....   ......   .......
And Both Guitars End On

D|---|
A|---|
F|---|
C|-0-|
G|-0-|
C|-0-|

There You Go , The First Tab For It's Our Burden To Bleed , If You See This
Anywhere Else Its Stolen!
Please Rate!

Legend:

/ - Slide Down
\ - Slide Up
. - Palm Mute
p - Pull-off
h - Hammer-On
* - Artificial Harmonic
^ - Full Bend
*^ - Harmonic And Bend
(0) - Ghost Note
x - Miss Note





Comments


Popular Caliban tabs & chords
Vicious Circle Bass Tabs
Arena Of Concealment Tabs
Arena Of Concliment Tabs
Army Of Me Tabs
Dark Shadows Tabs
Davy Jones Tabs
Detect Your Liberty Tabs
Song About Killing 1 Tabs
This Oath Tabs
Together Alone Tabs


Song lyrics



↑ Back to top | Tablatures and chords are parodies/interpretations of the original songs. You may use it for private study, scholarship, research or language learning purposes only
© 2014 AZChords.com Contact us | Privacy policy | DMCA | Add/correct tabs | Request tabs | Top 50 tabs