» » »

It's Our Burden To Bleed Bass tabs (ver.1)

Artists:  A B C D E F G H I J K L M N O P Q R S T U V W X Y Z # 

It's Our Burden To Bleed Bass tabs (ver.1)

Caliban
Rating:
0/5 (0 votes)

Hard to play? Try these video lessons and learn fast.
                Band: Caliban
Tuning: CGCF

I can garantee the chorus is wrong but oh well...

Intro Pt.1 x2
|-------------------------------------------| 
|-----------3-0----------2------------------|
|--------------------------3--(3-5)---------|  
|--0(00000)-----(000000)------------3-5-3\2-|  
   
|------------------------------------------| 
|-----------3-0----------5-3---------------|
|----------------------------(5-7)---------|  
|--0(00000)-----(000000)-----------5-7-5\4-|  
    
   
Intro Pt.2 x2
|---------------------------------------| 
|---------3-0--------2--------0---------|
|----------------------3----3-----------|  
|--000000-----000000------------3-5-3\2-|  
    
|-----------------------------------------| 
|---------3-0--------3-5------0-2---------|
|-----------------------------------0-----|  
|--000000-----000000--------------5---5\4-|  
    
Verse
|-----------------------------------------| 
|-----------------------------------------|
|---------8-5--------7-3----3-5-----------|  
|--000000-----000000--------------3-5-3\2-|  

|-----------------------------------------| 
|-----------------------------------------|
|---------8-5--------8-10----5-7----------|  
|--000000-----000000--------------5-7-5\4-|  
 
Fill
|-----------|
|-----------|  
|-----------|
|-0~---0~---|

Chorus x2
|----------------------------------------|
|----------------------------------------|
|----------------------------------------|
|-0-0-0-0-0-5-5-5-5-5-2-2-2-2-2-3-3-3-3-3|

Fill
|-----------------------------------------|
|-----------------------------------------| x 6
|-----------------------------------------|
|-000-00000-000-00000-000-00000-000-00000-|
   
Verse x2
|---------------------------------------------| 
|---------------------------------------------|
|---------8-5--------7-3----3-5---------------|  
|--000000-----000000--------------3-5-3\2-----|  
    
|---------------------------------------------| 
|---------------------------------------------|
|---------8-5--------8-10----5-7--------------|  
|--000000-----000000--------------5-7-5\4-----|  
    
Fill
|-----------|
|-----------|  
|-----------|
|-0~---0~---|

Chorus
|-----------------------------------------------------------------|
|-----------------------------------------------------------------|
|-1-1-1-1-1-1-1-1-1-0-0-0--1-1-1-1-1-1-1-0-0-0-0-0-0--5-5-5-5-5-5-|
|-----------------------------------------------------------------|

Fill
|-----------------------------------------|
|-----------------------------------------| x 6
|-----------------------------------------|
|-000-00000-000-00000-000-00000-000-00000-|

Outro A
|---------------------------------------------| 
|---------------------------------------------|
|---------8-5--------7-3----3-5---------------|  
|--000000-----000000--------------3-5-3\2-----|  

|---------------------------------------------| 
|---------------------------------------------|
|---------8-5--------8-10----5-7--------------|  
|--000000-----000000--------------5-7-5\4-----|  
    
|---------------------------|
|---------------------------| x 2
|---------------------------|
|-00-0000-000--00-0000-0000-|
       
Outro B
|-----------------------------------------| 
|-----------------------------------------|  
|-----------------------------------------|   
|-1-00000-3-000000-1-0000000-0-3-5-6---3~-|
    
|----------------------------------------|
|------------------------------------1-0-|
|----------------------------------------|
|-1-00000-3-000000-1-0000000-0-3-5-6-----|
   
|---|
|---|
|---|
|-0-|
            
Hard to play? Try these video lessons and learn fast. | Correct




comments powered by Disqus
↑ Back to top | Tablatures and chords are parodies/interpretations of the original songs. You may use it for private study, scholarship, research or language learning purposes only