>
 >
It's Our Burden To Bleed

It's Our Burden To Bleed Guitar Tabs

Caliban - It's Our Burden To Bleed chords, tabs, tablatures, lyrics

Guitar lessons | Add/correct | Request | Top 50 tabs Artists:  A B C D E F G H I J K L M N O P Q R S T U V W X Y Z 0-9

It's Our Burden To Bleed Guitar Tabs – Caliban

CD, Sheet music, Poster

Do you like It's Our Burden To Bleed? Share with your friends now
Bass TabsTabsTabs v2Tabs v3
Here my first tab, I think youīll be able to have fun with this sick song! Itīs quite 
but the second guitar of the chorus isnīt right...
Enjoy it!!

Intro:
Guitar 1
D|-----|-----------------------------------------------|
A|-----|-----------------------------------------------|
F|-----|-----------------------------------------------|
C|-(0)-|-----------------------------------------------|
G|--0--|---------8-5-------7-3-------------------------|
C|--0--|---------------------------------3-5-3-2-------|

D|-----------------------------------------------------|
A|-----------------------------------------------------|
F|-----------------------------------------------------|
C|-----------------------------------------------------|
G|---------------8-5-------10-8------------------------|
C|---------------------------------------5-7-5-3-------|

Guitar 2
D|-----------------------------------------------------|
A|-----------------------------------------------------|
F|-----------------------------------------------------|
C|-(0)-------------------------------------------------|
G|--0------------8-5-------7-3-------3-5---------------|
C|--0-00000000000---0000000---0000000----3-5-3-2-------|

D|-----------------------------------------------------|
A|-----------------------------------------------------|
F|-----------------------------------------------------|
C|-----------------------------------------------------|
G|---------------8-5-------10-8-------5-7--------------|
C|----00000000000---0000000----0000000----5-7-5-3------|

Then one more time guitar 1 and 2 same riff togheter(guitar2īs riff)

Verse:(The two guitars in one)
D|-----------------------------------------------------|
A|-----------------------------------------------------|
F|-----------------------------------------------------|
C|-----------------------------------------------------|
G|----00-000-000-8-5-0-000-7-3-0-000-3-5---------------|
C|----00-000-000-----0-000-----0-000-----3-5-3-2-------|
      .. ... ...     . ...     . ...
D|-----------------------------------------------------|
A|-----------------------------------------------------|
F|-----------------------------------------------------|
C|-----------------------------------------------------|
G|----00-000-000-8-5-0-000-10-8-0-000-5-7--------------|
C|----00-000-000-----0-000------0-000-----5-7-5-3------|
      .. ... ...     . ...      . ...
D|-----------------------------------------------------|
A|-----------------------------------------------------|
F|-----------------------------------------------------|
C|-----------------------------------------------------|
G|---------------8-5----------7-3---------3-5----------|
C|---00000000000------0000000-----0000000-----3-5-3-2--|

D|-----------------------------------------------------|
A|-----------------------------------------------------|
F|-----------------------------------------------------|
C|-----------------------------------------------------|
G|----------------8-5---------10-8---------5-7---------|
C|----00000000000-----0000000------0000000-----5-7-5-3-|

Pre-chorus:
D|----------------------------------|
A|----------------------------------|
F|-------10101010--9-9-9-9~---------|
C|---0~--x-x-x-x---x-x-x-x~---------| x2
G|---0~--8-8-8-8---7-7-7-7~---------|
C|---0~-----------------------------|

Chorus:
Guitar 1
D|-----------------------------------------------------------------------|
A|-----------------------------------------------------------------------|
F|-----------------------------------------------------------------------|
C|--0000000000000000-5555555555555555-3333333333333333-7777777777777777--|x2
G|--0000000000000000-5555555555555555-3333333333333333-7777777777777777--|
C|--0000000000000000-5555555555555555-3333333333333333-7777777777777777--|

Guitar 2 (?)
D|-----------------------------------------------------------------------|
A|-----------------------------------------------------------------------|
F|-----------------------------------------------------------------------|x2
C|-0~-10101010-9999~-5~-10101010-9999~-3333333333333333-7777777777777777-|
G|-0~-x-x-x-x--xxxx--5~-x-x-x-x--xxxx--3333333333333333-7777777777777777-|
C|-0~-8-8-8-8--7777~-5~-8-8-8-8--7777~-3333333333333333-7777777777777777-|

Post-chorus:
D|-----------------------------------------------------------|
A|-----------------------------------------------------------|
F|-----------------------------------------------------------|
C|-----------------------------------------------------------|
G|---00000-000-00000-0-0-0---x3--then-00000-000-00000--------|
C|---00000-000-00000-0-0-0------------00000-000-00000--------|
     ..... ... ..... . . .            ..... ... .....
Guitar 1
D|-----------------------------------------------------------|
A|-----------------------------------------------------------|
F|-----------------------------------------------------------|
C|---------------------------x3--then------------------------|
G|---00000-0-0-0-00000-000------------00000-0-0-0-00000------|
C|---00000-0-0-0-00000-000------------00000-0-0-0-00000------|
     ..... . . . ..... ...            ..... . . . .....
Guitar 2
D|-----------------------------------------------------------|
A|-----------------------------------------------------------|
F|----------------------------------------------5------------|
C|-----------------12-10-------10-8---------5-7---8-7--------|
G|--10101010101010---x---88888---x--55555-8------------------|
C|-----------------------------------------------------------|
     . . . . . . .       .....      .....     (Light P.M)
Back to verse:(mixed)
D|-----------------------------------------------------|
A|-----------------------------------------------------|
F|-----------------------------------------------------|
C|-----------------------------------------------------|
G|---------------8-5----------7-3---------3-5----------|
C|---00000000000------0000000-----0000000-----3-5-3-2--|

D|-----------------------------------------------------|
A|-----------------------------------------------------|
F|-----------------------------------------------------|
C|-----------------------------------------------------|
G|----------------8-5---------10-8---------5-7---------|
C|----00000000000-----0000000------0000000-----5-7-5-3-|

D|-----------------------------------------------------|
A|-----------------------------------------------------|
F|-----------------------------------------------------|
C|-----------------------------------------------------|
G|----00-000-000-8-5-0-000-7-3-0-000-3-5---------------|
C|----00-000-000-----0-000-----0-000-----3-5-3-2-------|
      .. ... ...     . ...     . ...
D|-----------------------------------------------------|
A|-----------------------------------------------------|
F|-----------------------------------------------------|
C|-----------------------------------------------------|
G|----00-000-000-8-5-0-000-10-8-0-000-5-7--------------|
C|----00-000-000-----0-000------0-000-----5-7-5-3------|
      .. ... ...     . ...      . ...

Pre-chorus:
D|-----------------------------------------------------|
A|-----------------------------------------------------|
F|-------10101010--9-9-9-9~----------------------------|
C|---0~--x-x-x-x---x-x-x-x~-------x2-------------------|
G|---0~--8-8-8-8---7-7-7-7~----------------------------|
C|---0~------------------------------------------------|

Chorus:
Guitar 1
D|-----------------------------------------------------------------------|
A|-----------------------------------------------------------------------|
F|-----------------------------------------------------------------------|
C|--0000000000000000-5555555555555555-3333333333333333-7777777777777777--|x2
G|--0000000000000000-5555555555555555-3333333333333333-7777777777777777--|
C|--0000000000000000-5555555555555555-3333333333333333-7777777777777777--|

Guitar 2 ?
D|-----------------------------------------------------------------------|
A|-----------------------------------------------------------------------|
F|-----------------------------------------------------------------------|x2
C|-0~-10101010-9999~-5~-10101010-9999~-3333333333333333-7777777777777777-|
G|-0~-x-x-x-x--xxxx--5~-x-x-x-x--xxxx--3333333333333333-7777777777777777-|
C|-0~-8-8-8-8--7777~-5~-8-8-8-8--7777~-3333333333333333-7777777777777777-|

Post-chorus:
D|---------------------------------------------------------|
A|---------------------------------------------------------|
F|---------------------------------------------------------|
C|---------------------------------------------------------|
G|---00000-000-00000-0-0-0---x3--then-00000-000-00000------|
C|---00000-000-00000-0-0-0------------00000-000-00000------|
     ..... ... ..... . . .            ..... ... .....

Bridge:
D|-----------------------------------------------------|
A|-----------------------------------------------------|
F|-----------------------------------------------------|
C|-----------------------------------------------------|
G|---------------8-5----------7-3---------3-5----------|
C|---00000000000------0000000-----0000000-----3-5-3-2--|

D|-----------------------------------------------------|
A|-----------------------------------------------------|
F|-----------------------------------------------------|
C|-----------------------------------------------------|
G|----------------8-5---------10-8---------5-7---------|
C|----00000000000-----0000000------0000000-----5-7-5-3-|

D|-----------------------------------------------------|
A|-----------------------------------------------------|
F|-----------------------------------------------------|
C|-----------------------------------------------------|
G|----00-000-000-----0-000-----0-000-------------------|
C|----00-000-000-----0-000-----0-000-----3-5-3-2-------|
      .. ... ...     . ...     . ...
D|-----------------------------------------------------|
A|-----------------------------------------------------|
F|-----------------------------------------------------|
C|-------------------------------------------------0~--|
G|----00-000-000-----0-000------0-000--------------0~--|
C|----00-000-000-----0-000------0-000-----5-7-5-3--0~--|
      .. ... ...     . ...      . ...

Pre-break:
D|-----------------------------------------------------|
A|-----------------------------------------------------|
F|----------------------------(not10)------------------|
C|----1-000000-10000000-10000000-10-------{3}----------|
G|----1-000000-10000000-10000000-10--------------------|
C|----1-000000-10000000-10000000-10--00113-------------|
        ......  .......  .......  .

D|-----------------------------------------------------|
A|-----------------------------------------------------|
F|-----------------------------------------------------|
C|----1-000000-10000000-10000000--1--013~--------------|
G|----1-000000-10000000-10000000--1--013~--------------|
C|----1-000000-10000000-10000000--1--013~--------------|
        ......  .......  .......
BREAKDOWN:
D|-----------------------------------------------------|
A|-----------------------------------------------------|
F|------------------------------(not10)----------------|
C|----1-000000-10000000-4x100000--10-------{3}---------| x4
G|----1-000000-10000000-4x100000--10-------------------|
C|----1-000000-10000000-4x100000--10--00113------------|
        ......  .......    .....   .
End:
D|-----|
A|-----|
F|-----|
C|--0--|
G|--0--|
C|--0--|





Comments


Popular Caliban tabs & chords
Certainty Corpses Bleed Cold Bass Tabs
Fire Of Night 1 Bass Tabs
It's Our Burden To Bleed Bass Tabs
Nothing Is Forever Bass Tabs
Vicious Circle Bass Tabs
Beloved And The Hatred 1 Tabs
Dark Shadows 1 Tabs
I Will Never Let You Down 1 Tabs
My Fiction Beauty 1 Tabs
Stand Up Tabs


Song lyrics



↑ Back to top | Tablatures and chords are parodies/interpretations of the original songs. You may use it for private study, scholarship, research or language learning purposes only
© 2014 AZChords.com Contact us | Privacy policy | DMCA | Add/correct tabs | Request tabs | Top 50 tabs