>
 >
Let Go

Let Go Guitar Tabs

Caliban - Let Go chords, tabs, tablatures, lyrics

Guitar lessons | Add/correct | Request | Top 50 tabs Artists:  A B C D E F G H I J K L M N O P Q R S T U V W X Y Z 0-9

Let Go Guitar Tabs – Caliban

CD, Sheet music, Poster

Do you like Let Go? Share with your friends now
TabsTabs v2
Artist - Caliban
Album - The Awakening
Track No - 2
Song - Let Go

Tuning - Drop B - B F# B E G# C#


h - Hammer On   
x - Mute String (with fret hand)
. - Palm Mute   


|------------------------------|
|------------------------------|
|------------------------------|
|--7----8----11----8----3---2--|
|--7----8----11----8----3---2--|
|--7----8----11----8----3---2--|
PM           .     .     
 


|------------------------------------------------------------|
|------------------------------------------------------------|
|------------------------------------------------------------|
|------------------------------------------------------------|
|--8----3----7----2------------8----3----7-------------------|
|--80000300007000020000000000008000030000700001-0-1-4-1-0-1--|
PM  .... .... .... ............ .... .... ....



|------------------------------------------------------------|
|------------------------------------------------------------|
|------------------------------------------------------------|
|------------------------------7----8----11----8----3---2----|
|--8----3----7----2------------7----8----11----8----3---2----|
|--80000300007000020000000000007----8----11----8----3---2----|
PM  .... .... .... ............



Whenever this riff is played the double notes at the end of the second run 
are played on two different guitars but it is also possible to play them 
both together on one guitar. 
|------------------------------------------------------------------------|
|------------------------------------------------------------------------|
|------------------------------------------------------------------------|
|-------------------5-------5--------------------------------------------|
|-8-------8---0h7h8-------------0h7h8-4-------4---0h3h4-----7---8---7----|
|---0-0-0---0---------0-0-0---0---------0-0-0---0-------7-0---0---0---0--|
|PM . . .   .         . . .   .         . . .   .         .   .   .   .
|
|------------------------------------------------------------------------|
|------------------------------------------------------------------------|
|------------------------------------------------------------------------|
|-------------------5-------5-------------------------------5---7---5----|
|-8-------8---0h7h8-------------0h7h8-4-------4---0h3h4-5---7---8---7----|
|---0-0-0---0---------0-0-0---0---------0-0-0---0-------7-0---0---0---0--|x2
 PM . . .   .         . . .   .         . . .   .         .   .   .   .



|---------------------------------------------------------------|
|---------------------------------------------------------------|
|----------10---------12---------6------------------------------|
|----------x----------x----------x------------------------------|
|----------8----------10---------4------------------------------|
|--222-000----222-000----222-000---000-000-000-000-000-000-000--|x2
PM ... ...    ... ...    ... ...   ... ... ... ... ... ... ...


***This is an alternative to the above riff.  Use whichever you prefer.
|-------------------------------------------------------------|
|----------6---------8----------------------------------------|
|----------x---------x---------6------------------------------|
|----------3---------5---------x------------------------------|
|------------------------------4------------------------------|
|--222-000---222-000---222-000---000-000-000-000-000-000-000--|
PM ... ...   ... ...   ... ...   ... ... ... ... ... ... ...



|------------------------------------------------------------------------|
|------------------------------------------------------------------------|
|------------------------------------------------------------------------|
|-------------------5-------5--------------------------------------------|
|-8-------8---0h7h8-------------0h7h8-4-------4---0h3h4-----7---8---7----|
|---0-0-0---0---------0-0-0---0---------0-0-0---0-------7-0---0---0---0--|
|PM . . .   .         . . .   .         . . .   .         .   .   .   .
|
|------------------------------------------------------------------------|
|------------------------------------------------------------------------|
|------------------------------------------------------------------------|
|-------------------5-------5-------------------------------5---7---5----|
|-8-------8---0h7h8-------------0h7h8-4-------4---0h3h4-5---7---8---7----|
|---0-0-0---0---------0-0-0---0---------0-0-0---0-------7-0---0---0---0--|
 PM . . .   .         . . .   .         . . .   .         .   .   .   .



|---------------------------------------------------------------|
|---------------------------------------------------------------|
|----------10---------12---------6------------------------------|
|----------x----------x----------x------------------------------|
|----------8----------10---------4------------------------------|
|--222-000----222-000----222-000---000-000-000-000-000-000-000--|x4
PM ... ...    ... ...    ... ...   ... ... ... ... ... ... ...



|------------------------------|
|------------------------------|
|------------------------------|
|--7----8----11----8----3---2--|
|--7----8----11----8----3---2--|
|--7----8----11----8----3---2--|
PM           .     .     



|------------------------------------------------------------|
|------------------------------------------------------------|
|------------------------------------------------------------|
|------------------------------------------------------------|
|--8----3----7----2------------8----3----7-------------------|
|--80000300007000020000000000008000030000700001-0-1-4-1-0-1--|
|PM .... .... .... ............ .... .... ....
|
|------------------------------------------------------------|
|------------------------------------------------------------|
|------------------------------------------------------------|
|------------------------------7----8----11----8----3---2----|
|--8----3----7----2------------7----8----11----8----3---2----|
|--80000300007000020000000000007----8----11----8----3---2----|x2
 PM .... .... .... ............



|---------------------------------------------------------------|
|---------------------------------------------------------------|
|----------10---------12---------6------------------------------|
|----------x----------x----------x------------------------------|
|----------8----------10---------4------------------------------|
|--222-000----222-000----222-000---000-000-000-000-000-000-000--|x4
PM ... ...    ... ...    ... ...   ... ... ... ... ... ... ...



|---------------------------|
|---------------------------|
|---------------------------|
|---------------------------|
|--0-0-0-000-000-0-0--------|
|--1-1-1-111-111-1-1--------|
PM . .   ... ... .



 Guitar 1
|----------------------------------------------------------------------|
|----------------------------------------------------------------------|
|----------------------------------------------------------------------|
|---------------------------------------------------------2-------2-3--|
|--0-0-0-000-000-0-0----------------0-0-0-000-000-0-0-------2-1-4------|
|--1-1-1-111-111-1-1----------------1-1-1-111-111-1-1-2-5--------------|
PM . . . ... ... . .                . . . ... ... . .

 Guitar 2
|----------------------------------------------------------------------|
|-----------------------------------------------------------------5-6--|
|---------------------------------------------------------3------------|
|-----------------------------------------------------------3-2-5------|
|--0-0-0-000-000-0-0----------------0-0-0-000-000-0-0-1-4--------------|
|--1-1-1-111-111-1-1----------------1-1-1-111-111-1-1------------------|
PM . . . ... ... . .                . . . ... ... . .



 Guitar 1
|----------------------------------------------------------------------|
|----------------------------------------------------------------------|
|----------------------------------------------------------------------|
|---------------------------------------------------------5-------5-6--|
|--0-0-0-000-000-0-0----------------0-0-0-000-000-0-0-------5-4-7------|
|--1-1-1-111-111-1-1----------------1-1-1-111-111-1-1-5-8--------------|
PM . . . ... ... . .                . . . ... ... . .

 Guitar 2
|----------------------------------------------------------------------|
|-----------------------------------------------------------------8-9--|
|---------------------------------------------------------6------------|
|-----------------------------------------------------------6-5-8------|
|--0-0-0-000-000-0-0----------------0-0-0-000-000-0-0-4-7--------------|
|--1-1-1-111-111-1-1----------------1-1-1-111-111-1-1------------------|
PM . . . ... ... . .                . . . ... ... . .



 Guitar 1
|------------------------------------------------------------------------|
|------------------------------------------------------------------------|
|------------------------------------------------------------------------|
|----------------------------------------------------------8--------8-9--|
|--0-0-0-000-000-0-0----------------0-0-0-000-000-0-0--------8-7-10------|
|--1-1-1-111-111-1-1----------------1-1-1-111-111-1-1-8-11---------------|
PM . . . ... ... . .                . . . ... ... . .

 Guitar 2
|--------------------------------------------------------------------------|
|-------------------------------------------------------------------11-12--|
|----------------------------------------------------------9---------------|
|------------------------------------------------------------9-8-11--------|
|--0-0-0-000-000-0-0----------------0-0-0-000-000-0-0-7-10-----------------|
|--1-1-1-111-111-1-1----------------1-1-1-111-111-1-1----------------------|
PM . . . ... ... . .                . . . ... ... . .



|---------|
|---------|
|---------|
|---------|
|--0-0-0--|
|--1-1-1--|
PM . . .



|------------------------------------------------------------------------|
|------------------------------------------------------------------------|
|------------------------------------------------------------------------|
|-------------------5-------5--------------------------------------------|
|-8-------8---0h7h8-------------0h7h8-4-------4---0h3h4-----7---8---7----|
|---0-0-0---0---------0-0-0---0---------0-0-0---0-------7-0---0---0---0--|
|PM . . .   .         . . .   .         . . .   .         .   .   .   .
|
|------------------------------------------------------------------------|
|------------------------------------------------------------------------|
|------------------------------------------------------------------------|
|-------------------5-------5-------------------------------5---7---5----|
|-8-------8---0h7h8-------------0h7h8-4-------4---0h3h4-5---7---8---7----|
|---0-0-0---0---------0-0-0---0---------0-0-0---0-------7-0---0---0---0--|x2
 PM . . .   .         . . .   .         . . .   .         .   .   .   .



|---------------------------------------------------------------|
|---------------------------------------------------------------|
|----------10---------12---------6------------------------------|
|----------x----------x----------x------------------------------|
|----------8----------10---------4------------------------------|
|--222-000----222-000----222-000---000-000-000-000-000-000-000--|x2
PM ... ...    ... ...    ... ...   ... ... ... ... ... ... ...



|------------------------------------------------------------------------|
|------------------------------------------------------------------------|
|------------------------------------------------------------------------|
|-------------------5-------5--------------------------------------------|
|-8-------8---0h7h8-------------0h7h8-4-------4---0h3h4-----7---8---7----|
|---0-0-0---0---------0-0-0---0---------0-0-0---0-------7-0---0---0---0--|
|PM . . .   .         . . .   .         . . .   .         .   .   .   .
|
|------------------------------------------------------------------------|
|------------------------------------------------------------------------|
|------------------------------------------------------------------------|
|-------------------5-------5-------------------------------5---7---5----|
|-8-------8---0h7h8-------------0h7h8-4-------4---0h3h4-5---7---8---7----|
|---0-0-0---0---------0-0-0---0---------0-0-0---0-------7-0---0---0---0--|
 PM . . .   .         . . .   .         . . .   .         .   .   .   .



|---------------------------------------------------------------|
|---------------------------------------------------------------|
|----------10---------12---------6------------------------------|
|----------x----------x----------x------------------------------|
|----------8----------10---------4------------------------------|
|--222-000----222-000----222-000---000-000-000-000-000-000-000--|x4
PM ... ...    ... ...    ... ...   ... ... ... ... ... ... ...



|------------------------------|
|------------------------------|
|------------------------------|
|--7----8----11----8----3---2--|
|--7----8----11----8----3---2--|
|--7----8----11----8----3---2--|





Comments


Popular Caliban tabs & chords
Tyranny Of Small Misery Bass Tabs
Arena Of Concliment Tabs
Beloved And The Hatred Tabs
Beloved And The Hatred 2 Tabs
Certainty Corpses Bleed Cold Tabs
It's Our Burden To Bleed 2 Tabs
My Fiction Beauty 1 Tabs
Salvation Tabs
Stigmata Tabs
Vicious Circle Tabs


Song lyrics



↑ Back to top | Tablatures and chords are parodies/interpretations of the original songs. You may use it for private study, scholarship, research or language learning purposes only
© 2014 AZChords.com Contact us | Privacy policy | DMCA | Add/correct tabs | Request tabs | Top 50 tabs