» » »

Cake, Love You Madly Bass tabs (ver.1)

Artists:  A B C D E F G H I J K L M N O P Q R S T U V W X Y Z # 

Love You Madly Bass tabs (ver.1)

Cake Tabs
 Rating:
4/5 (4 votes)
Love You Madly lessons Tabs too difficult? Try these video lessons and learn fast
1
                Key: D
Tuning: standard E A D G

Intro

G------------------------------------
D------------------------------------
A-------------------------------------
E--0--0----0--0----0--0----0--0----

Verse

G--------------------------------------------------------------------
D--------------------------------------------------------------------
A---7--5--7--5--7--5-----------------------------------------------
E-----------------------7--5--7-----5--3--5--3--5--7--5--0--0----

Bass Solo & Outro

G-----------------------------------------
D-----------------------------------------
A-----------------------------------------
E--0--0--0--0--0--0--0--0--2--3--5----
            
Submit corrections

comments powered by Disqus
↑ Back to top | Cake Bass for Love You Madly. Lyrics for acoustic guitar and electric guitar. 1 Tablatures and chords are parodies/interpretations of the original songs. You may use it for private study, scholarship, research or language learning purposes only