» » »

Let Me Go Bass tabs (ver.2)

Artists:  A B C D E F G H I J K L M N O P Q R S T U V W X Y Z # 

Let Me Go Bass tabs (ver.2)

Cake
Rating:
0/5 (0 votes)

Tabs too difficult? Try these video lessons and learn fast.
                
x=mute / fast open note

*= repeat once...unless noted otherwise
*

1 bar of just guitar

INTRO
G-------------------------------------|
D-------------------------------------|
A-0---0-x0-2-4---0--------------------|
E--------------------0-x0-2-4---------|

verse
G|-------------------------------------------||----------------------------------|-----------|
D|*-----------------------------------------*||*--------------------------------*|-----------|
A|*-0---x0-x0-2-4---5-----------------------*||*-0---x0-x0-2-4---0--------------*|-----------|
E|----------------------x0-x0-2-4------------||----------------------x0-x0-2-4---|-x0-x0-2-4-|

CHORUS
G|-------------------------------------------------------------------------------------------------------|
D|-------------------------------------------------------------------------------------------------------|
A|-------------x2-x2-4-6---x5----5-----------------5-30-------x2-x2-4-6---x5----5------------------------|
E|--x5-5-x4-5-----------------x5----x0-x0-2-4---020------x4-5----------------x5----x0-x0-2-4---x0-x0-2-4-|

post chorus
G|-------------------------------------------------------------------------|
D|-------------------------------------------------------------------------|
A|----------x2-x2-4-6----5----5--------------0---x0-x0-2-4---5-------------|
E|--5-x4-5-----------------x5----x0-x0-2-4-----------------------x0-x0-2-4-|

verse

chorus

outro
G|--------------------------------------------------------------------------------------------|
D|--------------------------------------------------------------------------------------------|
A|-------------x2-x2-4-6---x5----5-----------------5-30-------x2-x2-4-6---x5----5-------------|
E|--x5-5-x4-5-----------------x5----x0-x0-2-4---020------x4-5----------------x5----x0-x0-2-4--|

G|---------------------------------------------|
D|*-------------------------------------------*|repeat until end
A|*----------x2-x2-4-6----5----5--------------*|
E|---5-x4-5-----------------x5----x0-x0-2-4----|
            
Tabs too difficult? Try these video lessons and learn fast.


comments powered by Disqus
↑ Back to top | Tablatures and chords are parodies/interpretations of the original songs. You may use it for private study, scholarship, research or language learning purposes only