» » »

Cake, Let Me Go Bass tabs (ver.1)

Artists:  A B C D E F G H I J K L M N O P Q R S T U V W X Y Z # 

Let Me Go Bass tabs (ver.1)

Cake Tabs
 Rating:
4/5 (4 votes)
Let Me Go lessons Tabs too difficult? Try these video lessons and learn fast
1
                ------------------------------------
"Let Me Go"
------------------------------------

Having downloaded numerous songs from this great archive and from Olga, I 
decided it was finally time to contribute something.

This is a terrific though not very well song, very catchy.  You will need 
to listen to the song carefully to get the rhythm right; it is not 
complicated but not easy either.

Tuning is standard EADG, timing is standard 4/4.

1.  GUITAR INTRO, bass rests for 4 measures

2.  VERSE A - play 2 times

|---------------|---------------|---------------|---------------|
|---------------|---------------|---------------|---------------|
|---------------|------4--------|---------------|---------------|
|-5--[rest]--5--|5-5-7---[rest]-|-5-[rest]-----0|-0-0-2-4-[rest]|

[ no lyrics ]


3.  VERSE B - play 2 times

|---------------|---------------|---------------|---------------|
|---------------|---------------|---------------|---------------|
|---------------|------4--------|-5-------------|---------------|
|-5--[rest]--5--|5-5-7---[rest]-|---[rest]-----0|-0-0-2-4-[rest]|

[ lyrics ]


4.  VERSE A - play 2 times

[ lyrics ]

[ last time, repeat last measure one extra time ]


4.  CHORUS - play 2 times with lyrics

|---------------|---------------|---------------|---------------|
|---------------|---------------|---------------|---------------|
|---------------|----4-6--------|-5---5---------|--------[fill]-|
|-5-0-5------7--|7-7------------|---5----------0|-0-0-2-4-------|

[ lyrics ]

[ occasionally plays a few additional notes where fill is, not sure what]

[ last time, repeat last measure one extra time ]


5.  CHORUS - play 2 times without lyrics (guitar solo)

6.  Go back and repeat whole thing starting from #2, and at end play chorus 
several additional times.
            
Submit corrections

comments powered by Disqus
↑ Back to top | Cake Bass for Let Me Go. Lyrics for acoustic guitar and electric guitar. 1 Tablatures and chords are parodies/interpretations of the original songs. You may use it for private study, scholarship, research or language learning purposes only