» » »

Italian Leather Sofa Bass tabs (ver.1)

Artists:  A B C D E F G H I J K L M N O P Q R S T U V W X Y Z # 

Italian Leather Sofa Bass tabs (ver.1)

Cake
Rating:
0/5 (0 votes)

Hard to play? Try these video lessons and learn fast.
                Riff 1
G ---------------------------
D ---------------------------
A --3-0-3--3-0-3----3--------
E --------------------3-5----


Riff 2
G ---------------------------
D ---------------------------
A ---------------------------
E --3-0-3--3-0-3----3-0-1----


Riff 3
G ----------------------------------
D ----------------------------------
A ----------3---------------3-3-3-3-
E --1---3-------1---3---3-----------

Rest: 8 measures
Riff 1: 10x
Riff 2: 2x
Riff 1: 4x
Riff 3: 1x
Rest: 4 measures
Riff 1: 6x
Riff 2: 2x
Riff 1: 4x
Riff 3: 1x
Rest: 8 measures (trumpet build up to solo)
Riff 1: 48x (for the trumpet solo is very long)
Riff 2: 4x
Riff 1: 4x
Riff 2: 3x
and then the 4th time...
   "...in a ziploc baaaag..."    "...in the freezer" (guitar solo)
G --------------------------|--(5)--(5)--(5)--(5)------------------
D --------------------------|--(5)--(5)--(5)--(5)------------------
A --------------------------|---3----3----3----3-------------------
E --3-0-3--3-0-3----3-0-1-3-|--------------------------------------

Rest: 1 measure ("she doesn't care...")
Riff 1: 5x
Riff 2: 2x
Riff 1: 4x
Riff 3: 1x
My second tab completed...i hope it's satisfactory.
            
Hard to play? Try these video lessons and learn fast. | Correct




comments powered by Disqus
↑ Back to top | Tablatures and chords are parodies/interpretations of the original songs. You may use it for private study, scholarship, research or language learning purposes only