» » »

Arco Arena Bass tabs (ver.1)

Artists:  A B C D E F G H I J K L M N O P Q R S T U V W X Y Z # 

Arco Arena Bass tabs (ver.1)

Cake
Rating:
4/5 (2 votes)

Hard to play? Try these video lessons and learn fast.
                Cake - "Arco Arena"

Intro
g|--------------2----------2--|
d|----------------------------|
a|-------35230------35230-----|
E|---2------------------------|

Verse
G|-------------------------|
D|-------------------------|
A|-------------------------|
E|---5----5----5----5----3-|

G|-------------------------------------------------|
D|-------------------------------------------------|
A|-------------------------------------------------|
E|---5---03030---5-5---0303---5-5---03030-0303---3-|

G|------------------------------------------|
D|------------------------------------------|
A|-------0235320-----0235320-----0235320----|
E|---5--------------------------------------|

Format:
-	Intro [x1]
-	Verse [x1]
-	Intro [x1]
-	Verse [x1]
-	Intro [x1]
            
Hard to play? Try these video lessons and learn fast. | Correct




comments powered by Disqus
↑ Back to top | Tablatures and chords are parodies/interpretations of the original songs. You may use it for private study, scholarship, research or language learning purposes only