» » »

Buzzcocks, Ever Fallen In Love Bass tabs (ver.2)

Artists:  A B C D E F G H I J K L M N O P Q R S T U V W X Y Z # 

Ever Fallen In Love Bass tabs (ver.2)

Buzzcocks Tabs
 Rating:
4/5 (4 votes)
Ever Fallen In Love lessons Tabs too difficult? Try these video lessons and learn fast
                tuning: standard (eadg)

intro
g|--------|--------|--------|--------|
d|--------|--------|--------|--------|
a|44444444|444-4-22|44444444|444-4-22|
e|--------|--------|--------|--------|
                                     
g|--------|--------|--------|--------|
d|--------|--------|--------|--------|
a|--------|--------|--------|--------|
e|00000000|00000000|00000000|00000000|

verse
g|---------|--------|--------|--------|
d|*--------|--------|--------|--------|
a|*44444444|444-4-22|44444444|444-4-22|
e|---------|--------|--------|--------|
                                     x2
g|--------|--------|--------|---------|
d|--------|--------|--------|--------*|
a|--------|--------|--------|--------*|
e|00000000|00000000|00000000|00000000-|

chorus
g|--------|--------|--------|--------|
d|--------|--------|--------|--------|
a|4-4-444-|2-2-222-|4-4-444-|2-2-222-|
e|--------|--------|--------|--------|

g|--------|--------|--------|--------|
d|--------|--------|--------|--------|
a|55555555|--------|--7---7-|--7---7-|
e|--------|55555555|7---7---|77--7---|

verse again

chorus again

verse again

choeus again

chorus again

bridge
                                     x4
g|---------|--------|--------|---------|
d|*--------|--------|--------|--------*|
a|*--------|--------|--------|--------*|
e|-00000000|00000000|00000000|00000000-|

chorus again

outro
g|--------|--------|--------|--------|--------|
d|--5---5-|--5---5-|--------|--------|--------|
a|5---5---|55--5---|--------|22222222|--------|
e|--------|--------|33333333|--------|0-------|
            
Submit corrections

comments powered by Disqus
↑ Back to top | Buzzcocks Bass for Ever Fallen In Love. Lyrics for acoustic guitar and electric guitar. Tablatures and chords are parodies/interpretations of the original songs. You may use it for private study, scholarship, research or language learning purposes only