» » »

Buzzcocks, Promises Tabs (ver.1)

Artists:  A B C D E F G H I J K L M N O P Q R S T U V W X Y Z # 

Promises Tabs (ver.1)

Buzzcocks Tabs
 Rating:
4.4/5 (7 votes)
Promises lessons Tabs too difficult? Try these video lessons and learn fast
                Instrument: Guitar
Tuning: Standard (E A D G B E)


  intro guitar 1
E|-------------------------------------------------------------------||
B|-----------13---------13---------13---------13-17-17-17-16-15-13---||
G|12-12--14----12-12-14---12-12-14---12-12-14------------------------||
D|-------------------------------------------------------------------||
A|-------------------------------------------------------------------||
E|-------------------------------------------------------------------||

E|-------------------------------------------------------------------||
B|----------13---------13----------13---------13-17-17-18-17-15-13---||
G|12-12-14----12-12-14---12-12-14----12-12-14------------------------||
D|-------------------------------------------------------------------||
A|-------------------------------------------------------------------||
E|-------------------------------------------------------------------||

   intro guitar 2
E|3---------------|5-------3-------|3---------------|3---------------||
B|5---------------|6-------5-------|3---------------|5---------------||
G|5---------------|5-------5-------|4---------------|5---------------||
D|5---------------|7-------5-------|5---------------|5---------------||
A|3---------------|8-------3-------|5---------------|3---------------||
E|----------------|----------------|3---------------|----------------||
  C                F       C        G                C

   verse (same chords as intro)

   chorus  
E|0---------------|0---------------|1-------0-------|3---------------||
B|0---------------|0---------------|1-------1-------|3---------------||
G|1---------------|1---------------|2-------2-------|4---------------||
D|2---------------|2---------------|3-------2-------|5---------------||
A|2---------------|2---------------|3-------0-------|5---------------||
E|0---------------|0---------------|1---------------|3---------------||
  E                E                F       Am       G
E|1-------0-------|3---------------||
B|1-------1-------|3---------------||
G|2-------2-------|4---------------||
D|3-------2-------|5---------------||
A|3-------0-------|5---------------||
E|1---------------|3---------------||
  F       Am       G            x2
E|0----0----------|3-----3---------|0-----0---------||
B|1----1----------|3-----3---------|1-----1---------||
G|2----2----------|4-----4---------|2-----2---------||
D|2----2----------|5-----5---------|2-----2---------||
A|0----0----------|5-----5---------|0-----0---------||
E|----------------|3-----3---------|----------------||
  Am   Am          G     G          Am    Am
E|3----0----------||
B|3----1----------||
G|4----2----------||
D|5----2----------||
A|5----0----------||
E|3---------------||
  G    Am      x2

  middle
E|3---------------|--------5-------|7---------------|---------5------||
B|5---------------|--------6-------|8---------------|---------6------||
G|5---------------|--------5-------|7---------------|---------5------||
D|5---------------|--------3-------|5---------------|---------3------||
A|3---------------|----------------|----------------|----------------||
E|----------------|----------------|----------------|----------------||
  C                        F        G                         F   x2
E|3---------------||
B|5---------------||
G|5---------------||
D|5---------------||
A|3---------------||
E|----------------||
  C             x4

  end
E|3---------------||
B|5---------------||
G|5---------------||
D|5---------------||
A|3---------------||
E|----------------||


intro
verse 
chorus
verse
chorus
middle
verse
chorus
verse
chorus
end.
            
Submit corrections

comments powered by Disqus
↑ Back to top | Buzzcocks Tabs for Promises. Lyrics for acoustic guitar and electric guitar. Tablatures and chords are parodies/interpretations of the original songs. You may use it for private study, scholarship, research or language learning purposes only