» » »

Buzzcocks, I Don't Mind Bass tabs (ver.1)

Artists:  A B C D E F G H I J K L M N O P Q R S T U V W X Y Z # 

I Don't Mind Bass tabs (ver.1)

Buzzcocks Tabs
Rating:
0/5 (0 votes)
Hard to play? Try these video lessons and learn fast.
                G:|----------------------------|x3
D:|----------------------------|
A:|--6--6-6-6-6-6--------------|
E:|---------------6--6-6--6-6-6|

G:|-------------------------------------------------------------------------|
D:|-------------------------------------------------------------------------|
A:|--6--6-6-6-6-6--------5--5--6-6-6--------6--6-6--5--5-5--6--6-6----------|
E:|---------------6--6-6-------------6--6-6------------------------6-6------|

G:|-------------4--4-4-4-4-----|
D:|--6--6-6-6-6----------------|
A:|----------------------------|
E:|----------------------------|

G:|---------------------------|x2
D:|------8-8--6-6-8-8-8-8-----|
A:|--6-6----------------------|
E:|---------------------------|

G:|----------------------------|
D:|----------------------------|
A:|--6--6-6-6-6-6--------------|
E:|---------------6--6-6--6-6-6|

G:|-------------------------------------------------------------------------|
D:|-------------------------------------------------------------------------|
A:|--6--6-6-6-6-6--------5--5--6-6-6--------6--6-6--5--5-5--6--6-6----------|
E:|---------------6--6-6-------------6--6-6------------------------6-6------|

G:|-------------4--4-4-4-4-----|
D:|--6--6-6-6-6----------------|
A:|----------------------------|
E:|----------------------------|

G:|---------------------------|x2
D:|------8-8--6-6-8-8-8-8-----|
A:|--6-6----------------------|
E:|---------------------------|

G:|-------------------------------------------------------------------------------------------|
D:|-------------------------------------------------------------------------------------------|
A:|-------------------------------------------------------------------------------------------|
E:|--8--8-6-4-4--4-6--8-8--8-6--4-4--4-6--8-8--8-8-8-8--6-6-6--6-6--4-4-4--4-4--6-6-6--6-6----|

G:|----------------------------|
D:|----------------------------|
A:|--6--6-6-6-6-6--------------|
E:|---------------6--6-6--6-6-6|

G:|-------------------------------------------------------------------------|
D:|-------------------------------------------------------------------------|
A:|--6--6-6-6-6-6--------5--5--6-6-6--------6--6-6--5--5-5--6--6-6----------|
E:|---------------6--6-6-------------6--6-6------------------------6-6------|

G:|-------------4--4-4-4-4-----|
D:|--6--6-6-6-6----------------|
A:|----------------------------|
E:|----------------------------|

G:|---------------------------|x2
D:|------8-8--6-6-8-8-8-8-----|
A:|--6-6----------------------|
E:|---------------------------|

G:|-------------------------------------------------------------------------------------------|
D:|-------------------------------------------------------------------------------------------|
A:|-------------------------------------------------------------------------------------------|
E:|--8--8-6-4-4--4-6--8-8--8-6--4-4--4-6--8-8--8-8-8-8--6-6-6--6-6--4-4-4--4-4--6-6-6--6-6----|

G:|-------------------------------------------------------|x3
D:|-------------------------------------------------------|
A:|---------------------------------------6-6-6-6-6-5-----|
E:|--8--8-8--8-8--4--4-4-4--6--6-6--6-6-------------------|

G:|-------------------------------------------------------------|
D:|-------------------------------------------------------------|
A:|-------------------------------------------------------------|
E:|--8--8-8--8-8--4--4-4-4--6--6-6--6-6--7-7-7-7-7-7------------|

G:|----------------------------|
D:|----------------------------|
A:|--7--7-7-7-7-7--------------|
E:|---------------7--7-7--7-7-7|

G:|-------------------------------------------------------------------------|
D:|-------------------------------------------------------------------------|
A:|--7--7-7-7-7-7--------6--6--7-7-7--------7--7-7--6--6-6--7--7-7----------|
E:|---------------7--7-7-------------7--7-7------------------------7-7------|

G:|-------------5-5-5-5-5------|
D:|--7--7-7-7-7----------------|
A:|----------------------------|
E:|----------------------------|

G:|---------------------------|x3 |-------------|
D:|------9-9--7-7-9-9-9-9-----|   |-------------|
A:|--7-7----------------------|   |-7~---7------|
E:|---------------------------|   |-------------|
            

comments powered by Disqus
↑ Back to top | Buzzcocks Bass for I Don't Mind. Lyrics for acoustic guitar and electric guitar. Tablatures and chords are parodies/interpretations of the original songs. You may use it for private study, scholarship, research or language learning purposes only