» » »

Buzzcocks, Ever Fallen In Love Tabs (ver.3)

Artists:  A B C D E F G H I J K L M N O P Q R S T U V W X Y Z # 

Ever Fallen In Love Tabs (ver.3)

Buzzcocks Tabs
Rating:
0/5 (0 votes)
Ever Fallen In Love lessons Tabs too difficult? Try these video lessons and learn fast
                The Buzzcocks - Ever fallen in love with someone (you shouldn't've)

Props go to the Buzzcocks

Standard Tuning
P.M -Palm Mute
x - Don't play/mute
\ Slide down
/ Silde Up

Contents : Intro, verse, chorus, solo, outro, song structure

I'm pretty sure this is the closest I could get to the actual song.
If you have it on tape, cd, mp3 or whatever try and play along with it. 
And feel free to rate this tab. I'd like to know that my ears aren't decieving me ;O)

Intro/Verse

  You spurn my natural emotions.......
e|-------------------------------------------------------------------
B|-------------------------------------------------------------------
G|---6-6-6-6-6-6-6-6-6-6-6-6-\4-4------------------------------------  x2
D|---6-6-6-6-6-6-6-6-6-6-6-6-\4-4------------------------------------
A|---4-4-4-4-4-4-4-4-4-4-4-4-\2-2------------------------------------
E|-------------------------------------------------------------------
 P.M >>>>>>>>>>>>>>>>>>>>>>>

e|-------------------------------------------------------------------
B|---------------------5-5--7-5--------------------------------------
G|----------6----4---------------------------------------------------  x2
D|----6--------------------------------------------------------------
A|------7------------------------------------------------------------
E|-------------------------------------------------------------------

Then repeat that again, then switch to...

Chorus

  Ever Fallen.........
e|------------------------
B|------------------------
G|---6-6-666-\4-4-4-444/-- x2
D|---6-6-666-\4-4-4-444/--
A|---4-4-444-\2-2-2-222/--
E|------------------------

e|-------------------------------------------------------------------
B|-------------------------------------------------------------------
G|---7-7-7-7-x---------------------9----------9----------------------
D|---7-7-7-7-x--7-7-7-7-7-7-x--9-9-9-9-x--9-9-9-9-x------------------
A|---5-5-5-5-x--7-7-7-7-7-7-x--9-9-7-9-x--9-9-7-9-x------------------
E|--------------5-5-5-5-5-5-x--7-7---7-x--7-7---7-x------------------

Solo

  Guitar 1
e|--------------
B|--------------
G|--------------  (carries on for a while - listen to the song to hear
D|---9-9-9--9---   exactly how many times)
A|---9-9-9--9---
E|---7-7-7--7---
  P.M>>>>>

  Guitar 2 (comes in on second bar of guitar 1's part)
e|-------------------------------------------------------------------
B|--------------------5-5--7-5---------------------------------------
G|---------6----4----------------------------------------------------  x4
D|---6---------------------------------------------------------------
A|-----7-------------------------------------------------------------
E|-------------------------------------------------------------------
  
  Outro

e|-------------------------------------------------------------------
B|-------------------------------------------------------------------
G|-------7----------7-----------------------4-4-4-4-4-4-4-4---9------
D|---7-7-7-7-x--7-7-7-7-x--5-5-5-5-5-5-5-5--4-4-4-4-4-4-4-4---9------
A|---7-7-5-7-x--7-7-5-7-x--5-5-5-5-5-5-5-5--2-2-2-2-2-2-2-2---7------
E|---5-5---5-x--5-5---5-x--3-3-3-3-3-3-3-3---------------------------

You could end the song with guitar 2 playing a natural E chord. Demonstrated below:-

e|--0--------
B|--0--------
G|--1--------
D|--2--------
A|--2--------
E|--0--------


Song Structure

Intro
Verse x2
Chorus
Verse x2
Chorus
Verse x2
Chorus x2
Solo
Chorus
Outro

I think thats about it. Its the way I like to play it anyway. Questions, comments,
Poison pen letters, can all be directed to this link.
I'm hoping to get HOLE's "BE A MAN" up here soon so watch this space.

Enjoy the tab!
            

comments powered by Disqus
↑ Back to top | Buzzcocks Tabs for Ever Fallen In Love. Lyrics for acoustic guitar and electric guitar. Tablatures and chords are parodies/interpretations of the original songs. You may use it for private study, scholarship, research or language learning purposes only