» » »

Buzzcocks, Ever Fallen In Love Tabs (ver.2)

Artists:  A B C D E F G H I J K L M N O P Q R S T U V W X Y Z # 

Ever Fallen In Love Tabs (ver.2)

Buzzcocks Tabs
 Rating:
4/5 (4 votes)
Ever Fallen In Love lessons Tabs too difficult? Try these video lessons and learn fast
1
                tuning: eadgbe

Intro/verse
|---------------------------|    |---------0----2-0---------0---2-0-|
|-5-5-5-5-5-5-5-5-5-5--4-4--|    |-0---2p0-0--------1---2p0-0-------|
|-6-6-6-6-6-6-6-6-6-6--4-4--|X2  |---1--------1------2--------1-----|
|-6-6-6-6-6-6-6-6-6-6--4-4--|    |----------------------------------|
|-4-4-4-4-4-4-4-4-4-4--2-2--|    |----------------------------------|
|---------------------------|    |----------------------------------|

Chourus part 1
|---------------------|
|-5-5-5-5-5-4-4-4-4-4-|
|-6-6-6-6-6-4-4-4-4-4-|
|-6-6-6-6-6-4-4-4-4-4-|
|-4-4-4-4-4-2-2-2-2-2-|
|---------------------|

chorus part 2
|-------------------------------------------|
|-7-7-7-7-7-----------------9---------9-----|
|-7-7-7-7-7-6-6-6-6-6-6--8--9-8--8-8--9-8---|
|-7-7-7-7-7-7-7-7-7-7-7--9--9-9--9-9--9-9---|
|-5-5-5-5-5-7-7-7-7-7-7--9--7-9--9-9--7-9---|
|-----------5-5-5-5-5-5--7----7--7-7----7---|

bridge
|-----------------|
|-----------------|
|-----------------|
|-2-2-2-2-2-2-2-2-|X4
|-2-2-2-2-2-2-2-2-|
|-0-0-0-0-0-0-0-0-|



|---------0----2-0---------0---2-0-|
|-0---2p0-0--------1---2p0-0-------|
|---1--------1------2--------1-----|
|----------------------------------|X 2
|----------------------------------|
|----------------------------------|


outro
|-----------------------------------------|
|----7---------7--------------4-4-4-4-4---|
|-6--7-6--6-6--7-6--4-4-4-4-4-4-4-4-4-4-1-|
|-7--7-7--7-7--7-7--5-5-5-5-5-4-4-4-4-4-2-|
|-7--5-7--7-7--5-7--5-5-5-5-5-2-2-2-2-2-2-|
|-5----5--5-5----5--3-3-3-3-3-----------0-|

Order
intro/verse   X 3
chorus part 1 X 2
chorus part 2 X 1
intro/verse   X 2
chorus part 1 X 2
chorus part 2 X 1
intro/verse   X 2              the order looks alot harder then it is to
chorus part 1 X 2              remember.
chorus part 2 X 1
chorus part 1 X 2
chorus part 2 X 1
bridge        X 1
chorus part 1 X 2
chorus part 2 X 1
outro         X 1 let lst chord ring out
            
Submit corrections

comments powered by Disqus
↑ Back to top | Buzzcocks Tabs for Ever Fallen In Love. Lyrics for acoustic guitar and electric guitar. 1 Tablatures and chords are parodies/interpretations of the original songs. You may use it for private study, scholarship, research or language learning purposes only