» » »

*Blink 182*, Dogs Eating Dogs Bass tabs (ver.2)

Artists:  A B C D E F G H I J K L M N O P Q R S T U V W X Y Z # 

Dogs Eating Dogs Bass tabs (ver.2)

*Blink 182* Tabs
 Rating:
4/5 (4 votes)
Dogs Eating Dogs lessons Tabs too difficult? Try these video lessons and learn fast
1
                -------------------------------------------------------------------------------
                                        DOGS EATING DOGS - blink-182
-------------------------------------------------------------------------------

Tuning: Standard

Intro
G|-----------------------------------------------------------------------|
D|-----------------------------------------------------------------------|
A|-0000000000000000-33333333----------0000000000000000-33333333----------| (x2)
E|---------------------------33333333---------------------------00000000-|

Verse
G|-----------------------------------------------------------------------|
D|-----------------------------------------------------------------------|
A|-0----------------33333333----------0000000000000000-33333333----------|
E|---------------------------33333333---------------------------00000000-|

G|-----------------------------------------------------------------------|
D|-----------------------------------------------------------------------|
A|-0000000000000000-33333333----------0000000000000000-33333333-77777777-|
E|---------------------------33333333------------------------------------|

Pre-Chorus
G|-----------------------------------------------------------------------|
D|-------333--------------------------------333--------------------------|
A|------------------33333333---------------------------33333333-55555555-|
E|-111111---1111111----------33333333-111111---1111111-------------------|
(D-3 to sound similar to what you can hear in the background, it's the same note)

Chorus
G|----------------------------------------------------------------------|
D|----------------------------------------------------------------------|
A|-3333333333333333------------------00000000---------------------------| (x2)
E|------------------1111111111111111----------33333333-1111111111111111-|

Pre-Verse
G|-----------------------------------------------------------------------|
D|-----------------------------------------------------------------------|
A|-[=====REST=====]-33333333----------[=====REST=====]-33333333----------|
E|---------------------------33333333---------------------------00000000-|

Verse
G|-----------------------------------------------------------------------|
D|-----------------------------------------------------------------------|
A|-0000000000000000-33333333----------0000000000000000-33333333-77777777-|
E|---------------------------33333333------------------------------------|

Pre-Chorus

Chorus

Bridge
G|------------------------------------------------------------------|
D|------------------------------------------------------------------|
A|-0----------------------------------------------------------------|
E|------------------------------------------------------------------|
(It's 8 bars long)

(Wait another 8 bars, then)
G|---------------------|
D|---------------------|
A|----------333-3/5-55-| (x2)
E|-11-111-1------------|

G|------------------------|
D|------------------------|
A|-88-888-8-777-7/101010--|
E|------------------------|
("10" as ten, not "1" and "0")

Pre-Chorus
G|-----------------------------------------------------------------------|
D|-----------------------------------------------------------------------|
A|------------------33333333---------------------------33333333-55555555-|
E|-1111111111111111----------33333333-1111111111111111-------------------|

Chorus

Outro
G|-----------------------------------------------------------------------|
D|-----------------------------------------------------------------------|
A|-0000000000000000-33333333----------0000000000000000-33333333----------|
E|---------------------------33333333---------------------------0--------|


| /  slide up
| \  slide down
| h  hammer-on
| p  pull-off
| ~  vibrato
| +  harmonic
| x  Mute note
===============================================================================
            
Submit corrections

comments powered by Disqus
↑ Back to top | *Blink 182* Bass for Dogs Eating Dogs. Lyrics for acoustic guitar and electric guitar. 1 Tablatures and chords are parodies/interpretations of the original songs. You may use it for private study, scholarship, research or language learning purposes only