» » »

*Blink 182*, Dogs Eating Dogs Tabs (ver.3)

Artists:  A B C D E F G H I J K L M N O P Q R S T U V W X Y Z # 

Dogs Eating Dogs Tabs (ver.3)

*Blink 182* Tabs
 Rating:
4/5 (4 votes)
Dogs Eating Dogs lessons Tabs too difficult? Try these video lessons and learn fast
                intro

E |-----------------------------------------|
B |-----------------------------------------|
G |------------------------------5----------|
D |-10--9--10--12--10--9----5---5-----------|
A |--0---0---0---0---0---0----3---5---------|
E |.----------------------------------3-----|

E |-----------------------------------------|
B |-----------------------------------------|
G |------------------------------5----------|
D |-10--9--10--12--10--9----5---2-----------|
A |--0---0---0---0---0---0----3---2---------|
E |.----------------------------------0-----|

Verse

E |----------------------------------------|
B |----------------------------------------|
G |--2---5--------2--5---------------------|
D |--2---5--5----2---5--2------------------|
A |--0---3--5----0---3--2------------------|
E |----------3------------0----------------|

Prechorus

E |-------------------------------------------------------------|
B |-------------------------------------------------------------|
G |-------------------------------------------------------------|
D |-------------5555----------------------5555------------------|
A |---3333---3333---5555-----3333---3333--5555------------------|
E |---1111------------3333-----1111-----------------------------|
All palm muted

Chorus

E |----------------------------------------|
B |----------------------------------------|
G |-5----------2---------------------------|
D |-5---3-----2----5---3-------------------|
A |-3---3-----0----5---3-------------------|
E |-----1-----------3---1------------------|

Bridge

E |-----------------------------------------|
B |-----------------------------------------|
G |---2-------------------------------------|
D |---2-------------------------------------|
A |---0-------------------------------------|
E |-----------------------------------------|

E |----------------------------------------------|
B |---------------------------5------------------|
G |--------5-7-4-5-------5-----------------------|
D |-----7----------------------------------------|
A |--0-----------------3-------------------------|
E |----------------------------------------------|
X2

E |---------------------------------------------|
B |---------6-----------------------------------|
G |------5-----------5--------------------------|
D |---3-----------5-----5-2-3-------------------|
A |-------------3-------------------------------|
E |---------------------------------------------|
X2

E |-----------------------------------------|
B |--------6--------------------------------|
G |-----5-----------------------------------|
D |--3--------------------------------------|
A |-----------------------------------------|
E |-----------------------------------------|
            
Submit corrections

comments powered by Disqus
↑ Back to top | *Blink 182* Tabs for Dogs Eating Dogs. Lyrics for acoustic guitar and electric guitar. Tablatures and chords are parodies/interpretations of the original songs. You may use it for private study, scholarship, research or language learning purposes only