» » »

Dogs Eating Dogs Tabs (ver.2)

Artists:  A B C D E F G H I J K L M N O P Q R S T U V W X Y Z # 

Dogs Eating Dogs Tabs (ver.2)

*Blink 182*
Rating:
0/5 (0 votes)

Hard to play? Try these video lessons and learn fast.
                -------------------------------------------------------------------------------
-------------------------------------------------------------------------------

Tuning: Standard

 Intro
Guitar 1
e|---------------------------------------------------------------|  
B|---------------------------------------------------------------|  
G|5-----4------5-------7------5------4------5------4-------------|  
D|x-----x------x-------x------x------x------x------x-------------|
A|3-----2------2-------5------3------2------3------2-------------|  
E|---------------------------------------------------------------| 
Guitar 2                                                             X4
e|---------------------------------------------------------------|
B|---------------------------------------------------------------|
G|--------------------------------5-5-5-5-5-5-5-5----------------|    
D|7-7-7-7-7-7-7-7-7-7-7-7-7-7-7-7-5-5-5-5-5-5-5-5-5-5-5-5-5-5-5-5|
A|7-7-7-7-7-7-7-7-7-7-7-7-7-7-7-7-3-3-3-3-3-3-3-3-5-5-5-5-5-5-5-5|
E|5-5-5-5-5-5-5-5-5-5-5-5-5-5-5-5-----------------3-3-3-3-3-3-3-3|


 Verse
  (Hold 1st note)
e|---------------------------------------------------------------|
B|---------------------------------------------------------------|
G|--------------------------------5-5-5-5-5-5-5-5----------------|
D|7-------------------------------5-5-5-5-5-5-5-5-5-5-5-5-5-5-5-5|
A|7-------------------------------3-3-3-3-3-3-3-3-5-5-5-5-5-5-5-5|
E|5-----------------------------------------------3-3-3-3-3-3-3-3|

e|---------------------------------------------------------------|
B|---------------------------------------------------------------|
G|--------------------------------5-5-5-5-5-5-5-5----------------|
D|7-7-7-7-7-7-7-7-7-7-7-7-7-7-7-7-5-5-5-5-5-5-5-5-5-5-5-5-5-5-5-5|X3
A|7-7-7-7-7-7-7-7-7-7-7-7-7-7-7-7-3-3-3-3-3-3-3-3-5-5-5-5-5-5-5-5|
E|5-5-5-5-5-5-5-5-5-5-5-5-5-5-5-5-----------------3-3-3-3-3-3-3-3|

e|---------------------------------------------------------------|
B|---------------------------------------------------------------|
G|---------------------------------------------------------------|
D|--------------------------------5-5-5-5-5-5-5-5----------------|X2
A|7-7-7-7-7-7-7-7-7-7-7-7-7-7-7-7-3-3-3-3-3-3-3-3-5-5-5-5-5-5-5-5|
E|5-5-5-5-5-5-5-5-5-5-5-5-5-5-5-5-----------------3-3-3-3-3-3-3-3|
  x x x x x x x x x x x x x x x x x x x x x x x x x x x x x x x x 

 Chorus
e|----------------------------------------------------------------------------|
B|----------------------------------------------------------------------------|
G|5---------------------------------------------------------------------------|
D|5-----3------7-7-7-7-7-7-7-7-5-5-5-5-5-5-5-5-3-3-3-3-3-3-3-3-3-3-3-3-3-3-3-3|X2
A|3-----3------7-7-7-7-7-7-7-7-5-5-5-5-5-5-5-5-3-3-3-3-3-3-3-3-3-3-3-3-3-3-3-3|
E|------1------5-5-5-5-5-5-5-5-3-3-3-3-3-3-3-3-1-1-1-1-1-1-1-1-1-1-1-1-1-1-1-1|

Guitar 1
e|---------------------------------------------------------------|  
B|---------------------------------------------------------------|  
G|5-----4------5-------7------5------4------5------4-------------|  
D|x-----x------x-------x------x------x------x------x-------------|
A|3-----2------2-------5------3------2------3------2-------------|  
E|---------------------------------------------------------------| 
Guitar 2                                                           X2
e|---------------------------------------------------------------|
B|---------------------------------------------------------------|
G|--------------------------------5-5-5-5-5-5-5-5----------------|    
D|7-7-7-7-7-7-7-7-7-7-7-7-7-7-7-7-5-5-5-5-5-5-5-5-5-5-5-5-5-5-5-5|
A|7-7-7-7-7-7-7-7-7-7-7-7-7-7-7-7-3-3-3-3-3-3-3-3-5-5-5-5-5-5-5-5|
E|5-5-5-5-5-5-5-5-5-5-5-5-5-5-5-5-----------------3-3-3-3-3-3-3-3|

e|---------------------------------------------------------------|
B|---------------------------------------------------------------|
G|--------------------------------5-5-5-5-5-5-5-5----------------|
D|7-7-7-7-7-7-7-7-7-7-7-7-7-7-7-7-5-5-5-5-5-5-5-5-5-5-5-5-5-5-5-5|X2
A|7-7-7-7-7-7-7-7-7-7-7-7-7-7-7-7-3-3-3-3-3-3-3-3-5-5-5-5-5-5-5-5|
E|5-5-5-5-5-5-5-5-5-5-5-5-5-5-5-5-----------------3-3-3-3-3-3-3-3|

e|---------------------------------------------------------------|
B|---------------------------------------------------------------|
G|---------------------------------------------------------------|
D|--------------------------------5-5-5-5-5-5-5-5----------------|X2
A|7-7-7-7-7-7-7-7-7-7-7-7-7-7-7-7-3-3-3-3-3-3-3-3-5-5-5-5-5-5-5-5|
E|5-5-5-5-5-5-5-5-5-5-5-5-5-5-5-5-----------------3-3-3-3-3-3-3-3|
  x x x x x x x x x x x x x x x x x x x x x x x x x x x x x x x x 

Chorus
e|----------------------------------------------------------------------------|
B|----------------------------------------------------------------------------|
G|5---------------------------------------------------------------------------|
D|5-----3------7-7-7-7-7-7-7-7-5-5-5-5-5-5-5-5-3-3-3-3-3-3-3-3-3-3-3-3-3-3-3-3|X2
A|3-----3------7-7-7-7-7-7-7-7-5-5-5-5-5-5-5-5-3-3-3-3-3-3-3-3-3-3-3-3-3-3-3-3|
E|------1------5-5-5-5-5-5-5-5-3-3-3-3-3-3-3-3-1-1-1-1-1-1-1-1-1-1-1-1-1-1-1-1|

 Bridge
 Guitar comes in at 2:13
e|----------------------------------------------------------------------|
B|----------------------------------------------------------------------|
G|-------------------------------5--------5------5------5-------5------5|
D|-----------------------------5---5----5---5--5------5---5---5---5--5--|
A|2---3-----3--2--3----------3----------------------3-------------------|
E|------------------------------------5---------------------5-----------|

e|---------------------|
B|---------------------|
G|----5--------5-----5-|
D|--5---5----5---5--5--|
A|3--------------------|
E|---------5-----------|

 
e|---------------------------------------------------------------|
B|---------------------------------------------------------------|
G|---------------------------------------------------------------|
D|--------------------------------5-5-5-5-5-5-5-5----------------|X2
A|7-7-7-7-7-7-7-7-7-7-7-7-7-7-7-7-3-3-3-3-3-3-3-3-5-5-5-5-5-5-5-5|
E|5-5-5-5-5-5-5-5-5-5-5-5-5-5-5-5-----------------3-3-3-3-3-3-3-3|
  x x x x x x x x x x x x x x x x x x x x x x x x x x x x x x x x 

Chorus
e|----------------------------------------------------------------------------|
B|----------------------------------------------------------------------------|
G|5---------------------------------------------------------------------------|
D|5-----3------7-7-7-7-7-7-7-7-5-5-5-5-5-5-5-5-3-3-3-3-3-3-3-3-3-3-3-3-3-3-3-3|X2
A|3-----3------7-7-7-7-7-7-7-7-5-5-5-5-5-5-5-5-3-3-3-3-3-3-3-3-3-3-3-3-3-3-3-3|
E|------1------5-5-5-5-5-5-5-5-3-3-3-3-3-3-3-3-1-1-1-1-1-1-1-1-1-1-1-1-1-1-1-1|

Outro
Guitar 1
e|---------------------------------------------------------------|  
B|---------------------------------------------------------------|  
G|5-----4------5-------7------5------4------5------4-------------|  
D|x-----x------x-------x------x------x------x------x-------------|
A|3-----2------2-------5------3------2------3------2-------------|  
E|---------------------------------------------------------------| 
Guitar 2                                                             
e|---------------------------------------------------------------|
B|---------------------------------------------------------------|
G|--------------------------------5-5-5-5-5-5-5-5----------------|    
D|7-7-7-7-7-7-7-7-7-7-7-7-7-7-7-7-5-5-5-5-5-5-5-5-5-5-5-5-5-5-5-5|
A|7-7-7-7-7-7-7-7-7-7-7-7-7-7-7-7-3-3-3-3-3-3-3-3-5-5-5-5-5-5-5-5|
E|5-5-5-5-5-5-5-5-5-5-5-5-5-5-5-5-----------------3-3-3-3-3-3-3-3|

Guitar 1
e|--------------------------------------------------|  
B|--------------------------------------------------|  
G|5-----4------5-------7------5------4------5------3|  
D|x-----x------x-------x------x------x------x------x|
A|3-----2------2-------5------3------2------3------1|  
E|--------------------------------------------------| 
Guitar 2 
e|--------------------------------------------------|
B|--------------------------------------------------|
G|--------------------------------5-5-5-5-5-5-5-5---|
D|7-7-7-7-7-7-7-7-7-7-7-7-7-7-7-7-5-5-5-5-5-5-5-5-5-|
A|7-7-7-7-7-7-7-7-7-7-7-7-7-7-7-7-3-3-3-3-3-3-3-3-5-|
E|5-5-5-5-5-5-5-5-5-5-5-5-5-5-5-5-----------------3-|


************************************

| /   slide up
| \   slide down
| h   hammer-on
| p   pull-off
| ~   vibrato
| +   harmonic
| x   Mute note
| b   Bend
| pb  Pre-bend
| br  Bend release
| pbr Pre-bend release
| brb Bend release bend

************************************
            
Hard to play? Try these video lessons and learn fast. | Correct




comments powered by Disqus
↑ Back to top | Tablatures and chords are parodies/interpretations of the original songs. You may use it for private study, scholarship, research or language learning purposes only