» » »

Dogs Eating Dogs Bass tabs (ver.1)

Artists:  A B C D E F G H I J K L M N O P Q R S T U V W X Y Z # 

Dogs Eating Dogs Bass tabs (ver.1)

*Blink 182*
Rating:
0/5 (0 votes)

Hard to play? Try these video lessons and learn fast.
                -------------------------------------------------------------------------------
                             Dogs Eating Dogs - Blink 182
-------------------------------------------------------------------------------

Tuning: Standard

 Intro
G|---------------------------------------------------------------|
D|---------------------------------------------------------------|
A|0-0-0-0-0-0-0-0-0-0-0-0-0-0-0-0-3-3-3-3-3-3-3-3----------------|X4
E|------------------------------------------------3-3-3-3-3-3-3-3|
 
 Verse
G|---------------------------------------------------------------|
D|---------------------------------------------------------------|
A|0-------------------------------3-3-3-3-3-3-3-3----------------|
E|------------------------------------------------3-3-3-3-3-3-3-3|

G|---------------------------------------------------------------|
D|---------------------------------------------------------------|
A|0-0-0-0-0-0-0-0-0-0-0-0-0-0-0-0-3-3-3-3-3-3-3-3----------------|X3
E|------------------------------------------------3-3-3-3-3-3-3-3|


 Pre-Chorus
G|---------------------------------------------------------------|
D|---------------------------------------------------------------|
A|--------------------------------3-3-3-3-3-3-3-3----------------|X2
E|1-1-1-1-1-1-1-1-1-1-1-1-1-1-1-1-----------------3-3-3-3-3-3-3-3|

 Chorus 
G|---------------------------------------------------------------|
D|---------------------------------------------------------------|
A|3-3-3-3-3-3-3-3-3-3-3-3-3-3-3-3--------------------------------|
E|--------------------------------1-1-1-1-1-1-1-1-1-1-1-1-1-1-1-1|

G|---------------------------------------------------------------|
D|---------------------------------------------------------------|
A|---------------------------------------------------------------|
E|5-5-5-5-5-5-5-5-3-3-3-3-3-3-3-3-1-1-1-1-1-1-1-1-1-1-1-1-1-1-1-1|

G|---------------------------------------------------------------|
D|---------------------------------------------------------------|
A|3-3-3-3-3-3-3-3-3-3-3-3-3-3-3-3--------------------------------|
E|--------------------------------1-1-1-1-1-1-1-1-1-1-1-1-1-1-1-1|

G|---------------------------------------------------------------|
D|---------------------------------------------------------------|
A|---------------------------------------------------------------|
E|5-5-5-5-5-5-5-5-3-3-3-3-3-3-3-3-1-1-1-1-1-1-1-1-1-1-1-1-1-1-1-1|

 Verse
G|---------------------------------------------------------------|
D|---------------------------------------------------------------|
A|--------------------------------3-3-3-3-3-3-3-3----------------|
E|------------------------------------------------3-3-3-3-3-3-3-3|

G|---------------------------------------------------------------|
D|---------------------------------------------------------------|
A|0-0-0-0-0-0-0-0-0-0-0-0-0-0-0-0-3-3-3-3-3-3-3-3----------------|X3
E|------------------------------------------------3-3-3-3-3-3-3-3|

Pre-Chorus
G|---------------------------------------------------------------|
D|---------------------------------------------------------------|
A|--------------------------------3-3-3-3-3-3-3-3----------------|X2
E|1-1-1-1-1-1-1-1-1-1-1-1-1-1-1-1-----------------3-3-3-3-3-3-3-3|

Chorus 
G|---------------------------------------------------------------|
D|---------------------------------------------------------------|
A|3-3-3-3-3-3-3-3-3-3-3-3-3-3-3-3--------------------------------|
E|--------------------------------1-1-1-1-1-1-1-1-1-1-1-1-1-1-1-1|

G|---------------------------------------------------------------|
D|---------------------------------------------------------------|
A|---------------------------------------------------------------|
E|5-5-5-5-5-5-5-5-3-3-3-3-3-3-3-3-1-1-1-1-1-1-1-1-1-1-1-1-1-1-1-1|

G|---------------------------------------------------------------|
D|---------------------------------------------------------------|
A|3-3-3-3-3-3-3-3-3-3-3-3-3-3-3-3--------------------------------|
E|--------------------------------1-1-1-1-1-1-1-1-1-1-1-1-1-1-1-1|

G|---------------------------------------------------------------|
D|---------------------------------------------------------------|
A|---------------------------------------------------------------|
E|5-5-5-5-5-5-5-5-3-3-3-3-3-3-3-3-1-1-1-1-1-1-1-1-1-1-1-1-1-1-1-1|

 Bridge
 Starting at 2:24
G|-----------------------------------------------|
D|-----------------------------------------------|
A|---------------3-3-3-3-3-3-3-3-5-5-5-5-5-5-5-5-|
E|1----------------------------------------------|

G|-----------------------------------------------|
D|-----------------------------------------------|
A|---------------3-3-3-3-3-3-3-3-5-5-5-5-5-5-5-5-|
E|1----------------------------------------------|

G|--------------------------------------------------------------|
D|--------------------------------------------------------------|
A|8--------------7-7-7-7-7-7-7-7-10-10-10-10-10-10-10-10-10-10--|
E|--------------------------------------------------------------|

Pre-Chorus
G|---------------------------------------------------------------|
D|---------------------------------------------------------------|
A|--------------------------------3-3-3-3-3-3-3-3----------------|X2
E|1-1-1-1-1-1-1-1-1-1-1-1-1-1-1-1-----------------3-3-3-3-3-3-3-3|

Chorus 
G|---------------------------------------------------------------|
D|---------------------------------------------------------------|
A|3-3-3-3-3-3-3-3-3-3-3-3-3-3-3-3--------------------------------|
E|--------------------------------1-1-1-1-1-1-1-1-1-1-1-1-1-1-1-1|

G|---------------------------------------------------------------|
D|---------------------------------------------------------------|
A|---------------------------------------------------------------|
E|5-5-5-5-5-5-5-5-3-3-3-3-3-3-3-3-1-1-1-1-1-1-1-1-1-1-1-1-1-1-1-1|

G|---------------------------------------------------------------|
D|---------------------------------------------------------------|
A|3-3-3-3-3-3-3-3-3-3-3-3-3-3-3-3--------------------------------|
E|--------------------------------1-1-1-1-1-1-1-1-1-1-1-1-1-1-1-1|

G|---------------------------------------------------------------|
D|---------------------------------------------------------------|
A|---------------------------------------------------------------|
E|5-5-5-5-5-5-5-5-3-3-3-3-3-3-3-3-1-1-1-1-1-1-1-1-1-1-1-1-1-1-1-1|

 Outro
G|---------------------------------------------------------------|
D|---------------------------------------------------------------|
A|0-0-0-0-0-0-0-0-0-0-0-0-0-0-0-0-3-3-3-3-3-3-3-3----------------|
E|------------------------------------------------3-3-3-3-3-3-3-3|

G|---------------------------------------------------------------|
D|---------------------------------------------------------------|
A|0-0-0-0-0-0-0-0-0-0-0-0-0-0-0-0-3-3-3-3-3-3-3-3----------------|
E|------------------------------------------------3--------------|

| /  slide up
| \  slide down
| h  hammer-on
| p  pull-off
| ~  vibrato
| +  harmonic
| x  Mute note
===============================================================================
            
Hard to play? Try these video lessons and learn fast. | Correct




comments powered by Disqus
↑ Back to top | Tablatures and chords are parodies/interpretations of the original songs. You may use it for private study, scholarship, research or language learning purposes only