>
 >
Go 2

Go 2 Guitar Tabs

Blink - Go 2 chords, tabs, tablatures, lyrics

Guitar lessons | Add/correct | Request | Top 50 tabs Artists:  A B C D E F G H I J K L M N O P Q R S T U V W X Y Z 0-9

Go 2 Guitar Tabs – Blink

CD, Sheet music, Poster

Do you like Go 2? Share with your friends now
TabsTabs v2Tabs v3
Blink 182 - GO

   Intro
||------------------|-----------------|-----------------|------------------||
||------------------|-----------------|-----------------|------------------||X2
||--9-9-9-9-9-9-9-9-|-9-9-9-9-9-9-9-9-|-----------------|------------------||
||------------------|-----------------|-3-3-3-3-3-3-3-3-|-3-3-3-3-3-3-3-3--||
||--7-7-7-7-7-7-7-7-|-7-7-7-7-7-7-7-7-|-3-3-3-3-3-3-3-3-|-3-3-3-3-3-3-3-3--||
||--8-8-8-8-8-8-8-8-|-8-8-8-8-8-8-8-8-|-1-1-1-1-1-1-1-1-|-1-1-1-1-1-1-1-1--||


 Verse
                              
|-----------------|-----------------|-----------------|-----------------|
|-----------------|-----------------|-----------------|-----------------|
|-5-5-5-5-5-5-5-5-|-5-5-5-5-4-4-7-7-|-7---------------|-----------------|
|-x-x-x-x-x-x-x-x-|-x-x-x-x-x-x-x-x-|-x-3-3-3-3-3-3-3-|-3-3-3-3-3-3-3-3-|
|-3-3-3-3-3-3-3-3-|-3-3-3-3-2-2-5-5-|-5-x-x-x-x-x-x-x-|-x-x-x-x-x-x-x-x-|
|-----------------|-----------------|---1-1-1-1-1-1-1-|-1-1-1-1-1-1-1-1-|


                        
|-----------------|-----------------|-----------------|-----------------||
|-----------------|-----------------|-----------------|-----------------||
|-5-5-5-5-5-5-5-5-|-5-5-5-5-4-4-7-7-|-7---------------|-----------------||
|-x-x-x-x-x-x-x-x-|-x-x-x-x-x-x-x-x-|-x-3-3-3-3-3-3-3-|-3-3-3-3-3-3-3-3-||
|-3-3-3-3-3-3-3-3-|-3-3-3-3-2-2-5-5-|-5-x-x-x-x-x-x-x-|-x-x-x-x-x-x-x-x-||
|-----------------|-----------------|---1-1-1-1-1-1-1-|-1-1-1-1-1-1-1-1-||


 Chorus
|-----------------|-----------------|-----------------|-----------------||
|-----------------|-----------------|-----------------|-----------------||
|-2-2-2-2-2-2-2-2-|-----------------|-2-2-2-2-2-2-2-2-|-----------------||
|-2-2-2-2-2-2-2-2-|-3-3-3-3-3-3-3-3-|-2-2-2-2-2-2-2-2-|-3-3-3-3-3-3-3-3-||
|-0-0-0-0-0-0-0-0-|-3-3-3-3-3-3-3-3-|-0-0-0-0-0-0-0-0-|-3-3-3-3-3-3-3-3-||
|-----------------|-1-1-1-1-1-1-1-1-|-----------------|-1-1-1-1-1-1-1-1-||


   Pre-Verse
    
||------------------|-----------------|-----------------|-------------------||
||------------------|-----------------|-----------------|-------------------||
||--9-9-9-9-9-9-9-9-|-9-9-9-9-9-9-9-9-|-----------------|-------------------||
||------------------|-----------------|-3-3-3-3-3-3-3-3-|-3-3-3-3-3-3-3-3---||X2
||--7-7-7-7-7-7-7-7-|-7-7-7-7-7-7-7-7-|-3-3-3-3-3-3-3-3-|-3-3-3-3-3-3-3-3---||
||--8-8-8-8-8-8-8-8-|-8-8-8-8-8-8-8-8-|-1-1-1-1-1-1-1-1-|-1-1-1-1-1-1-1-1---||


 Verse
|-----------------|-----------------|-----------------|-----------------|
|-----------------|-----------------|-----------------|-----------------|
|-5-5-5-5-5-5-5-5-|-5-5-5-5-4-4-7-7-|-7---------------|-----------------|
|-x-x-x-x-x-x-x-x-|-x-x-x-x-x-x-x-x-|-x-3-3-3-3-3-3-3-|-3-3-3-3-3-3-3-3-|
|-3-3-3-3-3-3-3-3-|-3-3-3-3-2-2-5-5-|-5-x-x-x-x-x-x-x-|-x-x-x-x-x-x-x-x-|
|-----------------|-----------------|---1-1-1-1-1-1-1-|-1-1-1-1-1-1-1-1-|


|-----------------|-----------------|-----------------|-----------------||
|-----------------|-----------------|-----------------|-----------------||
|-5-5-5-5-5-5-5-5-|-5-5-5-5-4-4-7-7-|-7---------------|-----------------||
|-x-x-x-x-x-x-x-x-|-x-x-x-x-x-x-x-x-|-x-3-3-3-3-3-3-3-|-3-3-3-3-3-3-3-3-||
|-3-3-3-3-3-3-3-3-|-3-3-3-3-2-2-5-5-|-5-x-x-x-x-x-x-x-|-x-x-x-x-x-x-x-x-||
|-----------------|-----------------|---1-1-1-1-1-1-1-|-1-1-1-1-1-1-1-1-||


 Chorus
|-----------------|-----------------|-----------------|-----------------||
|-----------------|-----------------|-----------------|-----------------||
|-2-2-2-2-2-2-2-2-|-----------------|-2-2-2-2-2-2-2-2-|-----------------||
|-2-2-2-2-2-2-2-2-|-3-3-3-3-3-3-3-3-|-2-2-2-2-2-2-2-2-|-3-3-3-3-3-3-3-3-||
|-0-0-0-0-0-0-0-0-|-3-3-3-3-3-3-3-3-|-0-0-0-0-0-0-0-0-|-3-3-3-3-3-3-3-3-||
|-----------------|-1-1-1-1-1-1-1-1-|-----------------|-1-1-1-1-1-1-1-1-||


 Bridge
|------------|---------------|------------|--------|
|------------|---------------|------------|--------|
|-5---7---9--|-(9)-5---5--4--|-5---7---5--|-(5)----|
|-x---x---x--|-----x---x--x--|-x---x---x--|--------|
|-3---5---7--|-(7)-3---3--2--|-3---5---3--|-(3)----|
|------------|---------------|------------|--------|


|------------|------------|----------|--------|
|------------|------------|----------|--------|
|-5---7---5--|-5---4---5--|-5--------|-(5)----|
|-x---x---x--|-x---x---x--|-x--------|--------|
|-3---5---3--|-3---2---3--|-3--------|-(3)----|
|------------|------------|----------|--------|

Bass Part

|----------|---------|---------|-----||
|----------|---------|---------|-----||
|----------|---------|---------|-----||
|-2--------|---------|---------|-----||
|-2--------|---------|---------|-----||
|-0--------|---------|---------|-----||


 Out-Chorus
|-----------------|-----------------|-----------------|-----------------|
|-----------------|-----------------|-----------------|-----------------|
|-2-2-2-2-2-2-2-2-|-----------------|-2-2-2-2-2-2-2-2-|-----------------|
|-2-2-2-2-2-2-2-2-|-3-3-3-3-3-3-3-3-|-2-2-2-2-2-2-2-2-|-3-3-3-3-3-3-3-3-|
|-0-0-0-0-0-0-0-0-|-3-3-3-3-3-3-3-3-|-0-0-0-0-0-0-0-0-|-3-3-3-3-3-3-3-3-|
|-----------------|-1-1-1-1-1-1-1-1-|-----------------|-1-1-1-1-1-1-1-1-|

||------------------|-----------------|
||------------------|-----------------|
||--2-2-2-2-2-2-2-2-|-----------------|
||--2-2-2-2-2-2-2-2-|-3-3-3-3-3-3-3-3-|
||--0-0-0-0-0-0-0-0-|-3-3-3-3-3-3-3-3-|
||------------------|-1-1-1-1-1-1-1-1-|

                                      3x
|-----------------|-----------------------||
|-----------------|-----------------------||
|-2-2-2-2-2-2-2-2-|-----------------------||
|-2-2-2-2-2-2-2-2-|-3-3-3-3--3--3--3--3---||
|-0-0-0-0-0-0-0-0-|-3-3-3-3--3--3--3--3---||
|-----------------|-1-1-1-1--1--1--1--1---||


|-----------------|---------------------|----------|--------*|
|-----------------|---------------------|----------|--------*|
|-2-2-2-2-2-2-2-2-|---------------------|----------|--------*|
|-2-2-2-2-2-2-2-2-|-3-3-3-3-3-3---3---3-|-3--------|-(3)----*|
|-0-0-0-0-0-0-0-0-|-3-3-3-3-3-3---3---3-|-3--------|-(3)----*|
|-----------------|-1-1-1-1-1-1---1---1-|-1--------|-(1)----*|





Comments


Popular Blink tabs & chords
Anthem Part Ii Tabs
Dysentery Gary Tabs
Feeing This Tabs
Feeling This Tabs
Feeling This 100% Tabs
Heres Your Letter Tabs
Obvious 2 Tabs
Stockholm Syndrome Tabs
Waggy 1 Tabs
Whats My Age Again 1 Tabs


Song lyrics



↑ Back to top | Tablatures and chords are parodies/interpretations of the original songs. You may use it for private study, scholarship, research or language learning purposes only
© 2014 AZChords.com Contact us | Privacy policy | DMCA | Add/correct tabs | Request tabs | Top 50 tabs