» » »

You Fuked Up My Life Tabs (ver.1)

Artists:  A B C D E F G H I J K L M N O P Q R S T U V W X Y Z # 

You Fuked Up My Life Tabs (ver.1)

Blink
Rating:
0/5 (0 votes)

Hard to play? Try these video lessons and learn fast.
                You Fu*ked up My Life
Blink 182
standard tuning

The Riff
|----------|
|----------|
|----4--2--|
|--2-------|
|----------|
|----------|


intro/interludes(played with the riff)

-------------
-------------
--------6/7--
--7--4--6/7--
--7--4--4/5--
--5--2-------


verses


-------------
-------------
--------9-7--
--7--4--9-7--
--7--4--7-5--
--5--2-------

chorus

-------------
-------------
-----------7-
--7--7--4--7-
--7--7--4--5-
--5--4--2----

Bridge

-------0--------------0------------------0-------------0--------------
---------------2---------------2----------------2----------------2----
----2----2----2-2---2---2----2--2-----2---2---2--2---2---2-----2---2--
------------------------------------0-------0------0---------0--------
-2----------2-----2-------2-2-----------------------------------------

------0------------0------------------------0000--
------------2------------2-------2-----2----2222--
----2---2--2-2---2---2--2-2----2-----2------2222--
-----------------------------0-----0--------0000--
-0-------0-----2-------2--------------------------
--------------------------------------------------
These are the chords played after that solo
-----------------
-----------------
---7-----------7-
-7-7-x3--7--2--7-
-7-5-----7--2--5-
-5-------5--0----

The End Consists of the riff and the interlude chord progression
just like the intro but do not slide the chords
Have Fun!
            
Hard to play? Try these video lessons and learn fast. | Correct




comments powered by Disqus
↑ Back to top | Tablatures and chords are parodies/interpretations of the original songs. You may use it for private study, scholarship, research or language learning purposes only