» » »

Blink, Go Tabs (ver.2)

Artists:  A B C D E F G H I J K L M N O P Q R S T U V W X Y Z # 

Go Tabs (ver.2)

Blink Tabs
Rating:
0/5 (0 votes)
Go lessons Tabs too difficult? Try these video lessons and learn fast
                (100)

Intro
E|------------------------------------||
B|------------------------------------||
G|-9999999999999999-------------------||
D|-xxxxxxxxxxxxxxxx--3333333333333333-||
A|-7777777777777777--3333333333333333-||
E|-8888888888888888--1111111111111111-||

Verse
E|---------------------------------||
B|---------------------------------||
G|---------------------------------||
D|---------------------------------||
A|-333333333333-22-55--------------||
E|--------------------111111111111-||

Chorus
E|-------------------||
B|-------------------||
G|-22222222----------||
D|-22222222-33333333-||
A|-00000000-33333333-||
E|----------11111111-||

Bridge
E|-------------------------------------||
B|-------------------------------------||
G|-------------------------------------||
D|--5555555555555555-------------------||
A|--3333333333333333-3333333333333333--||
E|-------------------1111111111111111--||
P.M._________________________________

Bridge Guitar 2
E|-------------------------------------------------||
B|-------------------------------------------------||
G|-----------------------------------------------2-||
D|-----------------------------------------------2-||
A|--3/5/7--3--3--2--3/5--3~---3/5--3--2--3~~~----0-||
E|-------------------------------------------------||

Outro
E|-----------------------------------------------|---------------------||
B|-----------------------------------------------|---------------------||
G|-9999999999999999--5555/7777/9999/10101010-----|-9999999999999999----||
D|-xxxxxxxxxxxxxxxx--xxxx/xxxx/xxxx/-x-x-x-x-(3X)|-xxxxxxxxxxxxxxxx-3~-||
A|-7777777777777777--3333/5555/7777/-8-8-8-8-----|-7777777777777777-3~-||
E|-8888888888888888------------------------------|-8888888888888888-1~-||

Order

Intro   2X
Verse   2X
Chorus  2X
Intro   2X
Verse   2X
Chorus  2X
Bridge  2X  & Bridge Guitar 2  1X
Chorus  2X
Outro   1X
            

comments powered by Disqus
↑ Back to top | Blink Tabs for Go. Lyrics for acoustic guitar and electric guitar. Tablatures and chords are parodies/interpretations of the original songs. You may use it for private study, scholarship, research or language learning purposes only